  0
SECTION
  2
HEADER
  9
$ACADVER
  1
AC1015
  9
$ACADMAINTVER
 70
     6
  9
$DWGCODEPAGE
  3
ANSI_1254
  9
$INSBASE
 10
0.0
 20
0.0
 30
0.0
  9
$EXTMIN
 10
0.0
 20
0.0
 30
0.0
  9
$EXTMAX
 10
279.4
 20
215.9
 30
0.0
  9
$LIMMIN
 10
0.0
 20
0.0
  9
$LIMMAX
 10
279.4
 20
215.9
  9
$ORTHOMODE
 70
     0
  9
$REGENMODE
 70
     1
  9
$FILLMODE
 70
     1
  9
$QTEXTMODE
 70
     0
  9
$MIRRTEXT
 70
     1
  9
$LTSCALE
 40
1.0
  9
$ATTMODE
 70
     1
  9
$TEXTSIZE
 40
3.5
  9
$TRACEWID
 40
1.0
  9
$TEXTSTYLE
  7
Standard
  9
$CLAYER
  8
0
  9
$CELTYPE
  6
ByLayer
  9
$CECOLOR
 62
   256
  9
$CELTSCALE
 40
1.0
  9
$DISPSILH
 70
     0
  9
$DIMSCALE
 40
1.0
  9
$DIMASZ
 40
3.5
  9
$DIMEXO
 40
1.0
  9
$DIMDLI
 40
3.75
  9
$DIMRND
 40
0.0
  9
$DIMDLE
 40
0.0
  9
$DIMEXE
 40
1.0
  9
$DIMTP
 40
0.0
  9
$DIMTM
 40
0.0
  9
$DIMTXT
 40
3.5
  9
$DIMCEN
 40
2.5
  9
$DIMTSZ
 40
0.0
  9
$DIMTOL
 70
     0
  9
$DIMLIM
 70
     0
  9
$DIMTIH
 70
     1
  9
$DIMTOH
 70
     1
  9
$DIMSE1
 70
     0
  9
$DIMSE2
 70
     0
  9
$DIMTAD
 70
     1
  9
$DIMZIN
 70
     0
  9
$DIMBLK
  1

  9
$DIMASO
 70
     1
  9
$DIMSHO
 70
     1
  9
$DIMPOST
  1

  9
$DIMAPOST
  1

  9
$DIMALT
 70
     0
  9
$DIMALTD
 70
     3
  9
$DIMALTF
 40
0.0393700787
  9
$DIMLFAC
 40
1.0
  9
$DIMTOFL
 70
     1
  9
$DIMTVP
 40
0.0
  9
$DIMTIX
 70
     0
  9
$DIMSOXD
 70
     0
  9
$DIMSAH
 70
     0
  9
$DIMBLK1
  1

  9
$DIMBLK2
  1

  9
$DIMSTYLE
  2
ISO-25
  9
$DIMCLRD
 70
     0
  9
$DIMCLRE
 70
     0
  9
$DIMCLRT
 70
     0
  9
$DIMTFAC
 40
1.0
  9
$DIMGAP
 40
1.524
  9
$DIMJUST
 70
     0
  9
$DIMSD1
 70
     0
  9
$DIMSD2
 70
     0
  9
$DIMTOLJ
 70
     0
  9
$DIMTZIN
 70
     0
  9
$DIMALTZ
 70
     0
  9
$DIMALTTZ
 70
     0
  9
$DIMUPT
 70
     0
  9
$DIMDEC
 70
     2
  9
$DIMTDEC
 70
     2
  9
$DIMALTU
 70
     2
  9
$DIMALTTD
 70
     3
  9
$DIMTXSTY
  7
Standard
  9
$DIMAUNIT
 70
     0
  9
$DIMADEC
 70
     2
  9
$DIMALTRND
 40
0.0
  9
$DIMAZIN
 70
     0
  9
$DIMDSEP
 70
    44
  9
$DIMATFIT
 70
     3
  9
$DIMFRAC
 70
     0
  9
$DIMLDRBLK
  1

  9
$DIMLUNIT
 70
     2
  9
$DIMLWD
 70
    -2
  9
$DIMLWE
 70
    -2
  9
$DIMTMOVE
 70
     0
  9
$LUNITS
 70
     2
  9
$LUPREC
 70
     2
  9
$SKETCHINC
 40
1.0
  9
$FILLETRAD
 40
10.0
  9
$AUNITS
 70
     0
  9
$AUPREC
 70
     2
  9
$MENU
  1
.
  9
$ELEVATION
 40
0.0
  9
$PELEVATION
 40
0.0
  9
$THICKNESS
 40
0.0
  9
$LIMCHECK
 70
     0
  9
$CHAMFERA
 40
0.0
  9
$CHAMFERB
 40
0.0
  9
$CHAMFERC
 40
0.0
  9
$CHAMFERD
 40
0.0
  9
$SKPOLY
 70
     0
  9
$TDCREATE
 40
2458985.718159514
  9
$TDUCREATE
 40
2458985.593159514
  9
$TDUPDATE
 40
2458985.71815978
  9
$TDUUPDATE
 40
2458985.59315978
  9
$TDINDWG
 40
0.0000000116
  9
$TDUSRTIMER
 40
0.0000000116
  9
$USRTIMER
 70
     1
  9
$ANGBASE
 50
0.0
  9
$ANGDIR
 70
     0
  9
$PDMODE
 70
     0
  9
$PDSIZE
 40
-1.0
  9
$PLINEWID
 40
0.0
  9
$SPLFRAME
 70
     0
  9
$SPLINETYPE
 70
     6
  9
$SPLINESEGS
 70
     8
  9
$HANDSEED
  5
DF
  9
$SURFTAB1
 70
     6
  9
$SURFTAB2
 70
     6
  9
$SURFTYPE
 70
     6
  9
$SURFU
 70
     6
  9
$SURFV
 70
     6
  9
$UCSBASE
  2

  9
$UCSNAME
  2

  9
$UCSORG
 10
0.0
 20
0.0
 30
0.0
  9
$UCSXDIR
 10
1.0
 20
0.0
 30
0.0
  9
$UCSYDIR
 10
0.0
 20
1.0
 30
0.0
  9
$UCSORTHOREF
  2

  9
$UCSORTHOVIEW
 70
     0
  9
$UCSORGTOP
 10
0.0
 20
0.0
 30
0.0
  9
$UCSORGBOTTOM
 10
0.0
 20
0.0
 30
0.0
  9
$UCSORGLEFT
 10
0.0
 20
0.0
 30
0.0
  9
$UCSORGRIGHT
 10
0.0
 20
0.0
 30
0.0
  9
$UCSORGFRONT
 10
0.0
 20
0.0
 30
0.0
  9
$UCSORGBACK
 10
0.0
 20
0.0
 30
0.0
  9
$PUCSBASE
  2

  9
$PUCSNAME
  2

  9
$PUCSORG
 10
0.0
 20
0.0
 30
0.0
  9
$PUCSXDIR
 10
1.0
 20
0.0
 30
0.0
  9
$PUCSYDIR
 10
0.0
 20
1.0
 30
0.0
  9
$PUCSORTHOREF
  2

  9
$PUCSORTHOVIEW
 70
     0
  9
$PUCSORGTOP
 10
0.0
 20
0.0
 30
0.0
  9
$PUCSORGBOTTOM
 10
0.0
 20
0.0
 30
0.0
  9
$PUCSORGLEFT
 10
0.0
 20
0.0
 30
0.0
  9
$PUCSORGRIGHT
 10
0.0
 20
0.0
 30
0.0
  9
$PUCSORGFRONT
 10
0.0
 20
0.0
 30
0.0
  9
$PUCSORGBACK
 10
0.0
 20
0.0
 30
0.0
  9
$USERI1
 70
     0
  9
$USERI2
 70
     0
  9
$USERI3
 70
     0
  9
$USERI4
 70
     0
  9
$USERI5
 70
     0
  9
$USERR1
 40
0.0
  9
$USERR2
 40
0.0
  9
$USERR3
 40
0.0
  9
$USERR4
 40
0.0
  9
$USERR5
 40
0.0
  9
$WORLDVIEW
 70
     1
  9
$SHADEDGE
 70
     3
  9
$SHADEDIF
 70
    70
  9
$TILEMODE
 70
     1
  9
$MAXACTVP
 70
    64
  9
$PINSBASE
 10
0.0
 20
0.0
 30
0.0
  9
$PLIMCHECK
 70
     0
  9
$PEXTMIN
 10
1.0000000000E+20
 20
1.0000000000E+20
 30
1.0000000000E+20
  9
$PEXTMAX
 10
-1.0000000000E+20
 20
-1.0000000000E+20
 30
-1.0000000000E+20
  9
$PLIMMIN
 10
0.0
 20
0.0
  9
$PLIMMAX
 10
420.0
 20
297.0
  9
$UNITMODE
 70
     0
  9
$VISRETAIN
 70
     1
  9
$PLINEGEN
 70
     0
  9
$PSLTSCALE
 70
     1
  9
$TREEDEPTH
 70
  3020
  9
$CMLSTYLE
  2
Standard
  9
$CMLJUST
 70
     0
  9
$CMLSCALE
 40
20.0
  9
$PROXYGRAPHICS
 70
     1
  9
$MEASUREMENT
 70
     1
  9
$CELWEIGHT
370
    -1
  9
$ENDCAPS
280
     0
  9
$JOINSTYLE
280
     0
  9
$LWDISPLAY
290
     1
  9
$INSUNITS
 70
     4
  9
$HYPERLINKBASE
  1

  9
$STYLESHEET
  1

  9
$XEDIT
290
     1
  9
$CEPSNTYPE
380
     0
  9
$PSTYLEMODE
290
     1
  9
$FINGERPRINTGUID
  2
{19f0f93a-159f-44ac-892b-8bf2ad58fd46}
  9
$VERSIONGUID
  2
{FAEB1C32-E019-11D5-929B-00C0DF256EC4}
  9
$EXTNAMES
290
     1
  9
$PSVPSCALE
 40
0.0
  9
$OLESTARTUP
290
     0
  0
ENDSEC
  0
SECTION
  2
CLASSES
  0
CLASS
  1
ACDBDICTIONARYWDFLT
  2
AcDbDictionaryWithDefault
  3
ObjectDBX Classes
 90
        0
280
     0
281
     0
  0
CLASS
  1
VISUALSTYLE
  2
AcDbVisualStyle
  3
ObjectDBX Classes
 90
     4095
280
     0
281
     0
  0
CLASS
  1
MATERIAL
  2
AcDbMaterial
  3
ObjectDBX Classes
 90
     1153
280
     0
281
     0
  0
CLASS
  1
SCALE
  2
AcDbScale
  3
ObjectDBX Classes
 90
     1153
280
     0
281
     0
  0
CLASS
  1
TABLESTYLE
  2
AcDbTableStyle
  3
ObjectDBX Classes
 90
     4095
280
     0
281
     0
  0
CLASS
  1
MLEADERSTYLE
  2
AcDbMLeaderStyle
  3
ACDB_MLEADERSTYLE_CLASS
 90
     4095
280
     0
281
     0
  0
CLASS
  1
SUN
  2
AcDbSun
  3
SCENEOE
 90
     1153
280
     0
281
     0
  0
CLASS
  1
ACDBPLACEHOLDER
  2
AcDbPlaceHolder
  3
ObjectDBX Classes
 90
        0
280
     0
281
     0
  0
CLASS
  1
LAYOUT
  2
AcDbLayout
  3
ObjectDBX Classes
 90
        0
280
     0
281
     0
  0
ENDSEC
  0
SECTION
  2
TABLES
  0
TABLE
  2
VPORT
  5
8
330
0
100
AcDbSymbolTable
 70
     1
  0
VPORT
  5
29
330
8
100
AcDbSymbolTableRecord
100
AcDbViewportTableRecord
  2
*Active
 70
     0
 10
0.0
 20
0.0
 11
1.0
 21
1.0
 12
139.7
 22
107.95
 13
0.0
 23
0.0
 14
10.0
 24
10.0
 15
10.0
 25
10.0
 16
0.0
 26
0.0
 36
1.0
 17
0.0
 27
0.0
 37
0.0
 40
215.9
 41
1.2941176471
 42
50.0
 43
0.0
 44
0.0
 50
0.0
 51
0.0
 71
     0
 72
  2000
 73
     1
 74
     3
 75
     0
 76
     0
 77
     0
 78
     0
281
     0
 65
     1
110
0.0
120
0.0
130
0.0
111
1.0
121
0.0
131
0.0
112
0.0
122
1.0
132
0.0
 79
     0
146
0.0
  0
ENDTAB
  0
TABLE
  2
LTYPE
  5
5
330
0
100
AcDbSymbolTable
 70
     6
  0
LTYPE
  5
14
330
5
100
AcDbSymbolTableRecord
100
AcDbLinetypeTableRecord
  2
ByBlock
 70
     0
  3

 72
    65
 73
     0
 40
0.0
  0
LTYPE
  5
15
330
5
100
AcDbSymbolTableRecord
100
AcDbLinetypeTableRecord
  2
ByLayer
 70
     0
  3

 72
    65
 73
     0
 40
0.0
  0
LTYPE
  5
16
330
5
100
AcDbSymbolTableRecord
100
AcDbLinetypeTableRecord
  2
Continuous
 70
     0
  3
Solid line
 72
    65
 73
     0
 40
0.0
  0
LTYPE
  5
6E
330
5
100
AcDbSymbolTableRecord
100
AcDbLinetypeTableRecord
  2
HIDDEN
 70
     0
  3
Hidden __ __ __ __ __ __ __ __ __ __ __ __ __ __
 72
    65
 73
     2
 40
1.905
 49
1.27
 74
     0
 49
-0.635
 74
     0
  0
LTYPE
  5
6F
330
5
100
AcDbSymbolTableRecord
100
AcDbLinetypeTableRecord
  2
PHANTOM
 70
     0
  3
Phantom ______  __  __  ______  __  __  ______
 72
    65
 73
     6
 40
12.7
 49
6.35
 74
     0
 49
-1.27
 74
     0
 49
1.27
 74
     0
 49
-1.27
 74
     0
 49
1.27
 74
     0
 49
-1.27
 74
     0
  0
LTYPE
  5
70
330
5
100
AcDbSymbolTableRecord
100
AcDbLinetypeTableRecord
  2
CENTER
 70
     0
  3
Center ____ _ ____ _ ____ _ ____ _ ____ _ ____
 72
    65
 73
     4
 40
10.16
 49
6.35
 74
     0
 49
-1.27
 74
     0
 49
1.27
 74
     0
 49
-1.27
 74
     0
  0
LTYPE
  5
71
330
5
100
AcDbSymbolTableRecord
100
AcDbLinetypeTableRecord
  2
CENTERX2
 70
     0
  3
Center (2x) ________  __  ________  __  _____
 72
    65
 73
     4
 40
20.32
 49
12.7
 74
     0
 49
-2.54
 74
     0
 49
2.54
 74
     0
 49
-2.54
 74
     0
  0
LTYPE
  5
72
330
5
100
AcDbSymbolTableRecord
100
AcDbLinetypeTableRecord
  2
DOT2
 70
     0
  3
Dot (.5x) ........................................
 72
    65
 73
     2
 40
0.635
 49
0.0
 74
     0
 49
-0.635
 74
     0
  0
ENDTAB
  0
TABLE
  2
LAYER
  5
2
330
0
100
AcDbSymbolTable
 70
    17
  0
LAYER
  5
10
330
2
100
AcDbSymbolTableRecord
100
AcDbLayerTableRecord
  2
0
 70
     0
 62
     7
  6
Continuous
370
    -3
390
F
  0
LAYER
  5
73
330
2
100
AcDbSymbolTableRecord
100
AcDbLayerTableRecord
  2
FORMAT
 70
     0
 62
     7
  6
Continuous
370
    -3
390
F
  0
LAYER
  5
74
330
2
100
AcDbSymbolTableRecord
100
AcDbLayerTableRecord
  2
YARDIMCI_GEOMETRI
 70
     0
 62
    -6
  6
Continuous
290
     0
370
    -3
390
F
  0
LAYER
  5
75
330
2
100
AcDbSymbolTableRecord
100
AcDbLayerTableRecord
  2
SAYFA_CERCEVESI
 70
     0
 62
     7
  6
Continuous
370
    25
390
F
  0
LAYER
  5
76
330
2
100
AcDbSymbolTableRecord
100
AcDbLayerTableRecord
  2
ANTET
 70
     0
 62
     7
  6
Continuous
370
    -3
390
F
  0
LAYER
  5
77
330
2
100
AcDbSymbolTableRecord
100
AcDbLayerTableRecord
  2
OLCU
 70
     0
 62
   150
  6
Continuous
370
    -3
390
F
  0
LAYER
  5
78
330
2
100
AcDbSymbolTableRecord
100
AcDbLayerTableRecord
  2
METIN
 70
     0
 62
    96
  6
Continuous
370
    -3
390
F
  0
LAYER
  5
79
330
2
100
AcDbSymbolTableRecord
100
AcDbLayerTableRecord
  2
BALON
 70
     0
 62
     5
  6
Continuous
370
    -3
390
F
  0
LAYER
  5
7A
330
2
100
AcDbSymbolTableRecord
100
AcDbLayerTableRecord
  2
VURGU
 70
     0
 62
     7
  6
Continuous
370
    -3
390
F
  0
LAYER
  5
7B
330
2
100
AcDbSymbolTableRecord
100
AcDbLayerTableRecord
  2
SILIK
 70
     0
 62
     7
  6
Continuous
370
    -3
390
F
  0
LAYER
  5
7C
330
2
100
AcDbSymbolTableRecord
100
AcDbLayerTableRecord
  2
MODEL
 70
     0
 62
     7
  6
Continuous
370
    -3
390
F
  0
LAYER
  5
7D
330
2
100
AcDbSymbolTableRecord
100
AcDbLayerTableRecord
  2
DETAYLANDıRMA
 70
     0
 62
   190
  6
Continuous
370
    -3
390
F
  0
LAYER
  5
7E
330
2
100
AcDbSymbolTableRecord
100
AcDbLayerTableRecord
  2
TOLERANS
 70
     0
 62
   230
  6
Continuous
370
    -3
390
F
  0
LAYER
  5
7F
330
2
100
AcDbSymbolTableRecord
100
AcDbLayerTableRecord
  2
MERKEZ_CIZGILERI
 70
     0
 62
    30
  6
Continuous
370
    -3
390
F
  0
LAYER
  5
80
330
2
100
AcDbSymbolTableRecord
100
AcDbLayerTableRecord
  2
KESIT-DETAY_CIZGILERI
 70
     0
 62
     7
  6
Continuous
370
    -3
390
F
  0
LAYER
  5
81
330
2
100
AcDbSymbolTableRecord
100
AcDbLayerTableRecord
  2
\U+041E\U+0421\U+0415\U+0412\U+042B\U+0415
 70
     0
 62
     7
  6
Continuous
370
    -3
390
F
  0
LAYER
  5
82
330
2
100
AcDbSymbolTableRecord
100
AcDbLayerTableRecord
  2
\U+0412\U+041E\U+0414\U+042F\U+041D\U+042B\U+0415_\U+0417\U+041D\U+0410\U+041A\U+0418
 70
     0
 62
    11
  6
Continuous
370
    -3
390
F
  0
ENDTAB
  0
TABLE
  2
STYLE
  5
3
330
0
100
AcDbSymbolTable
 70
     1
  0
STYLE
  5
11
330
3
100
AcDbSymbolTableRecord
100
AcDbTextStyleTableRecord
  2
Standard
 70
     0
 40
0.0
 41
1.0
 50
0.0
 71
     0
 42
3.5
  3
txt
  4

  0
ENDTAB
  0
TABLE
  2
VIEW
  5
6
330
0
100
AcDbSymbolTable
 70
     0
  0
ENDTAB
  0
TABLE
  2
UCS
  5
7
330
0
100
AcDbSymbolTable
 70
     0
  0
ENDTAB
  0
TABLE
  2
APPID
  5
9
330
0
100
AcDbSymbolTable
 70
     1
  0
APPID
  5
12
330
9
100
AcDbSymbolTableRecord
100
AcDbRegAppTableRecord
  2
ACAD
 70
     0
  0
ENDTAB
  0
TABLE
  2
DIMSTYLE
  5
A
330
0
100
AcDbSymbolTable
 70
     1
100
AcDbDimStyleTable
  0
DIMSTYLE
105
27
330
A
100
AcDbSymbolTableRecord
100
AcDbDimStyleTableRecord
  2
ISO-25
 70
     0
 41
2.5
 42
0.625
 43
3.75
 44
1.25
 73
     0
 74
     0
 77
     1
 78
     8
140
2.5
141
2.5
143
0.0393700787
147
0.625
171
     3
172
     1
178
     0
271
     2
272
     2
274
     3
278
    44
283
     0
284
     8
340
11
  0
ENDTAB
  0
TABLE
  2
BLOCK_RECORD
  5
1
330
0
100
AcDbSymbolTable
 70
     3
  0
BLOCK_RECORD
  5
1F
330
1
100
AcDbSymbolTableRecord
100
AcDbBlockTableRecord
  2
*Model_Space
340
22
  0
BLOCK_RECORD
  5
1B
330
1
100
AcDbSymbolTableRecord
100
AcDbBlockTableRecord
  2
*Paper_Space
340
1E
  0
BLOCK_RECORD
  5
23
330
1
100
AcDbSymbolTableRecord
100
AcDbBlockTableRecord
  2
*Paper_Space0
340
26
  0
BLOCK_RECORD
  5
B0
330
1
100
AcDbSymbolTableRecord
100
AcDbBlockTableRecord
  2
SW_CENTERMARKSYMBOL_0
340
0
102
{BLKREFS
331
BB
102
}
  0
BLOCK_RECORD
  5
C5
330
1
100
AcDbSymbolTableRecord
100
AcDbBlockTableRecord
  2
SW_CENTERMARKSYMBOL_1
340
0
102
{BLKREFS
331
D0
102
}
  0
ENDTAB
  0
ENDSEC
  0
SECTION
  2
BLOCKS
  0
BLOCK
  5
20
330
1F
100
AcDbEntity
  8
0
100
AcDbBlockBegin
  2
*Model_Space
 70
     0
 10
0.0
 20
0.0
 30
0.0
  3
*Model_Space
  1

  0
ENDBLK
  5
21
330
1F
100
AcDbEntity
  8
0
100
AcDbBlockEnd
  0
BLOCK
  5
1C
330
1B
100
AcDbEntity
 67
     1
  8
0
100
AcDbBlockBegin
  2
*Paper_Space
 70
     0
 10
0.0
 20
0.0
 30
0.0
  3
*Paper_Space
  1

  0
ENDBLK
  5
1D
330
1B
100
AcDbEntity
 67
     1
  8
0
100
AcDbBlockEnd
  0
BLOCK
  5
24
330
23
100
AcDbEntity
  8
0
100
AcDbBlockBegin
  2
*Paper_Space0
 70
     0
 10
0.0
 20
0.0
 30
0.0
  3
*Paper_Space0
  1

  0
ENDBLK
  5
25
330
23
100
AcDbEntity
  8
0
100
AcDbBlockEnd
  0
BLOCK
  5
B1
330
B0
100
AcDbEntity
  8
0
100
AcDbBlockBegin
  2
SW_CENTERMARKSYMBOL_0
 70
     0
 10
0.0
 20
0.0
 30
0.0
  3
SW_CENTERMARKSYMBOL_0
  1

  0
LINE
  5
B3
330
B0
100
AcDbEntity
  8
FORMAT
 62
     0
100
AcDbLine
 10
0.0
 20
0.0
 30
0.0
 11
0.0
 21
2.5
 31
0.0
  0
LINE
  5
B4
330
B0
100
AcDbEntity
  8
FORMAT
 62
     0
100
AcDbLine
 10
0.0
 20
0.0
 30
0.0
 11
-2.5
 21
0.0
 31
0.0
  0
LINE
  5
B5
330
B0
100
AcDbEntity
  8
FORMAT
 62
     0
100
AcDbLine
 10
0.0
 20
0.0
 30
0.0
 11
0.0
 21
-2.5
 31
0.0
  0
LINE
  5
B6
330
B0
100
AcDbEntity
  8
FORMAT
 62
     0
100
AcDbLine
 10
0.0
 20
0.0
 30
0.0
 11
2.5
 21
0.0
 31
0.0
  0
LINE
  5
B7
330
B0
100
AcDbEntity
  8
FORMAT
 62
     0
100
AcDbLine
 10
0.0
 20
5.0
 30
0.0
 11
0.0
 21
82.5
 31
0.0
  0
LINE
  5
B8
330
B0
100
AcDbEntity
  8
FORMAT
 62
     0
100
AcDbLine
 10
-5.0
 20
0.0
 30
0.0
 11
-82.5
 21
0.0
 31
0.0
  0
LINE
  5
B9
330
B0
100
AcDbEntity
  8
FORMAT
 62
     0
100
AcDbLine
 10
0.0
 20
-5.0
 30
0.0
 11
0.0
 21
-82.5
 31
0.0
  0
LINE
  5
BA
330
B0
100
AcDbEntity
  8
FORMAT
 62
     0
100
AcDbLine
 10
5.0
 20
0.0
 30
0.0
 11
82.5
 21
0.0
 31
0.0
  0
ENDBLK
  5
B2
330
B0
100
AcDbEntity
  8
0
100
AcDbBlockEnd
  0
BLOCK
  5
C6
330
C5
100
AcDbEntity
  8
0
100
AcDbBlockBegin
  2
SW_CENTERMARKSYMBOL_1
 70
     0
 10
0.0
 20
0.0
 30
0.0
  3
SW_CENTERMARKSYMBOL_1
  1

  0
LINE
  5
C8
330
C5
100
AcDbEntity
  8
FORMAT
 62
     0
100
AcDbLine
 10
0.0
 20
0.0
 30
0.0
 11
0.0
 21
2.5
 31
0.0
  0
LINE
  5
C9
330
C5
100
AcDbEntity
  8
FORMAT
 62
     0
100
AcDbLine
 10
0.0
 20
0.0
 30
0.0
 11
-2.5
 21
0.0
 31
0.0
  0
LINE
  5
CA
330
C5
100
AcDbEntity
  8
FORMAT
 62
     0
100
AcDbLine
 10
0.0
 20
0.0
 30
0.0
 11
0.0
 21
-2.5
 31
0.0
  0
LINE
  5
CB
330
C5
100
AcDbEntity
  8
FORMAT
 62
     0
100
AcDbLine
 10
0.0
 20
0.0
 30
0.0
 11
2.5
 21
0.0
 31
0.0
  0
LINE
  5
CC
330
C5
100
AcDbEntity
  8
FORMAT
 62
     0
100
AcDbLine
 10
0.0
 20
5.0
 30
0.0
 11
0.0
 21
82.5
 31
0.0
  0
LINE
  5
CD
330
C5
100
AcDbEntity
  8
FORMAT
 62
     0
100
AcDbLine
 10
-5.0
 20
0.0
 30
0.0
 11
-82.5
 21
0.0
 31
0.0
  0
LINE
  5
CE
330
C5
100
AcDbEntity
  8
FORMAT
 62
     0
100
AcDbLine
 10
0.0
 20
-5.0
 30
0.0
 11
0.0
 21
-82.5
 31
0.0
  0
LINE
  5
CF
330
C5
100
AcDbEntity
  8
FORMAT
 62
     0
100
AcDbLine
 10
5.0
 20
0.0
 30
0.0
 11
82.5
 21
0.0
 31
0.0
  0
ENDBLK
  5
C7
330
C5
100
AcDbEntity
  8
0
100
AcDbBlockEnd
  0
ENDSEC
  0
SECTION
  2
ENTITIES
  0
LINE
  5
83
330
1F
100
AcDbEntity
  8
0
  6
Continuous
 62
     7
370
    25
100
AcDbLine
 10
47.8772338397
 20
172.6442430832
 30
0.0
 11
47.8772338397
 21
46.7813317396
 31
0.0
  0
LINE
  5
84
330
1F
100
AcDbEntity
  8
0
  6
Continuous
 62
     7
370
    25
100
AcDbLine
 10
207.8772302634
 20
46.7813317396
 30
0.0
 11
207.8772302634
 21
172.6442430832
 31
0.0
  0
ARC
  5
85
330
1F
100
AcDbEntity
  8
0
  6
Continuous
 62
     7
370
    25
100
AcDbCircle
 10
207.8772320515
 20
172.6442467497
 30
0.0
 40
160.0
100
AcDbArc
 50
135.0
 51
180.0
  0
LINE
  5
86
330
1F
100
AcDbEntity
  8
0
  6
Continuous
 62
     7
370
    25
100
AcDbLine
 10
185.3086877531
 20
376.3498668291
 30
0.0
 11
94.7401452726
 21
285.7813243486
 31
0.0
  0
LINE
  5
87
330
1F
100
AcDbEntity
  8
0
  6
Continuous
 62
     7
370
    25
100
AcDbLine
 10
207.8772302634
 20
172.6442430832
 30
0.0
 11
298.4457727438
 21
263.2127855636
 31
0.0
  0
LINE
  5
88
330
1F
100
AcDbEntity
  8
0
  6
Continuous
 62
     7
370
    25
100
AcDbLine
 10
127.8772320515
 20
46.7813317396
 30
0.0
 11
207.8772302634
 21
46.7813317396
 31
0.0
  0
LINE
  5
89
330
1F
100
AcDbEntity
  8
0
  6
Continuous
 62
     7
370
    25
100
AcDbLine
 10
47.8772338397
 20
46.7813317396
 30
0.0
 11
127.8772320515
 21
46.7813317396
 31
0.0
  0
LWPOLYLINE
  5
8A
330
1F
100
AcDbEntity
  8
0
  6
Continuous
 62
     7
370
    25
100
AcDbPolyline
 90
       27
 70
   128
 43
0.0
 10
241.8772321111
 20
319.7813336469
 10
245.3596409327
 20
316.2989322759
 10
248.8288398749
 20
312.8297333337
 10
252.2716712123
 20
309.3868796446
 10
255.6750740773
 20
305.9834842302
 10
259.0261366135
 20
302.632421694
 10
262.31214068
 20
299.3464176275
 10
265.5206438071
 20
296.1379294016
 10
268.6394419438
 20
293.0191163637
 10
271.6567333704
 20
290.001824937
 10
274.5610590941
 20
287.0975141145
 10
277.3413922554
 20
284.317166052
 10
279.9872126347
 20
281.6713456728
 10
282.4884619481
 20
279.1700963594
 10
284.835663057
 20
276.8228952505
 10
287.0199050671
 20
274.6386532404
 10
289.0329029328
 20
272.6256553747
 10
290.8670272595
 20
270.791531048
 10
292.5153192049
 20
269.1432540037
 10
293.9715202815
 20
267.6870529272
 10
295.2301021582
 20
266.4284561493
 10
296.2863113648
 20
265.3722618438
 10
297.1361245877
 20
264.522448621
 10
297.7763082749
 20
263.8822500326
 10
298.2044633395
 20
263.454094968
 10
298.4189506537
 20
263.2396225549
 10
298.4457727438
 20
263.2127855636
  0
LWPOLYLINE
  5
8B
330
1F
100
AcDbEntity
  8
0
  6
Continuous
 62
     7
370
    25
100
AcDbPolyline
 90
       27
 70
   128
 43
0.0
 10
185.3086877531
 20
376.3498668291
 10
185.3355172938
 20
376.3230447389
 10
185.5500008828
 20
376.1085574247
 10
185.9781522221
 20
375.6804172613
 10
186.6183470851
 20
375.0402037718
 10
187.4681565827
 20
374.1904203512
 10
188.524362064
 20
373.1341962434
 10
189.7829476661
 20
371.8756143667
 10
191.2391524679
 20
370.4194132902
 10
192.8874369627
 20
368.7711362459
 10
194.7215612895
 20
366.9370119192
 10
196.7345591551
 20
364.9240140535
 10
198.9188011652
 20
362.7397720434
 10
201.2660022742
 20
360.3925709345
 10
203.7672515875
 20
357.8913216211
 10
206.4130645162
 20
355.2455012418
 10
209.1934051281
 20
352.4651531793
 10
212.0977308518
 20
349.5608274557
 10
215.1150222785
 20
346.5435509302
 10
218.2338278657
 20
343.4247378923
 10
221.4423160917
 20
340.2162496664
 10
224.7283276087
 20
336.9302455999
 10
228.079390145
 20
333.5791830637
 10
231.4827930099
 20
330.1757876493
 10
234.9256168968
 20
326.7329339601
 10
238.3948232895
 20
323.2637350179
 10
241.8772321111
 20
319.7813336469
  0
LINE
  5
8C
330
1F
100
AcDbEntity
  8
0
  6
Continuous
 62
     1
370
    25
100
AcDbLine
 10
47.8772338397
 20
172.6442430832
 30
0.0
 11
207.8772302634
 21
172.6442430832
 31
0.0
  0
LWPOLYLINE
  5
8D
330
1F
100
AcDbEntity
  8
0
  6
Continuous
 62
     1
370
    25
100
AcDbPolyline
 90
       52
 70
   128
 43
0.0
 10
94.7401452726
 20
285.7813243486
 10
94.8474373585
 20
285.674035988
 10
95.1689075595
 20
285.3525732376
 10
95.7033339805
 20
284.8181430914
 10
96.4486900634
 20
284.0727870084
 10
97.4021501756
 20
283.1193362095
 10
98.5600951976
 20
281.9613818742
 10
99.9181330121
 20
280.6033496477
 10
101.4711134052
 20
279.0503655292
 10
103.2131448305
 20
277.3083303787
 10
105.1376204854
 20
275.3838603117
 10
107.2372369385
 20
273.284241996
 10
109.5040313816
 20
271.0174475528
 10
111.9294077075
 20
268.5920749523
 10
114.5041607237
 20
266.0173182108
 10
117.2185264445
 20
263.30295249
 10
120.0622081673
 20
260.4592744924
 10
123.024418383
 20
257.4970577575
 10
126.0939204516
 20
254.4275526621
 10
129.2590708621
 20
251.262411914
 10
132.5078628874
 20
248.0136160471
 10
135.8279729179
 20
244.6935032226
 10
139.206806562
 20
241.3146649219
 10
142.6315469584
 20
237.8899310447
 10
146.0892021573
 20
234.4322805025
 10
149.5666582054
 20
230.954826317
 10
153.0507210559
 20
227.4707560159
 10
156.5281752414
 20
223.9933018305
 10
159.9858332342
 20
220.5356512882
 10
163.4105708367
 20
217.1109025099
 10
166.7894054121
 20
213.7320791103
 10
170.1095145112
 20
210.4119662859
 10
173.3583066529
 20
207.1631704189
 10
176.5234585768
 20
203.9980147697
 10
179.592959947
 20
200.9285245754
 10
182.5551692313
 20
197.9663078405
 10
185.3988509542
 20
195.1226298429
 10
188.1132166749
 20
192.4082641222
 10
190.6879734165
 20
189.8335073806
 10
193.113346017
 20
187.4081347801
 10
195.3801404602
 20
185.141340337
 10
197.4797587759
 20
183.0417220213
 10
199.4042362935
 20
181.1172519542
 10
201.1462639934
 20
179.3752168037
 10
202.6992481119
 20
177.8222326853
 10
204.057287789
 20
176.4642004587
 10
205.2152272231
 20
175.3062461235
 10
206.1686854726
 20
174.3527953245
 10
206.9140415555
 20
173.6074392416
 10
207.4484717018
 20
173.0730090954
 10
207.7699419028
 20
172.7515314438
 10
207.8772302634
 20
172.6442430832
  0
LINE
  5
8E
330
1F
100
AcDbEntity
  8
0
  6
Continuous
 62
     7
370
    25
100
AcDbLine
 10
-245.1678614556
 20
319.7813336469
 30
0.0
 11
-245.1678614556
 21
229.2127911665
 31
0.0
  0
LINE
  5
8F
330
1F
100
AcDbEntity
  8
0
  6
Continuous
 62
     7
370
    25
100
AcDbLine
 10
-85.1678650319
 20
229.2127911665
 30
0.0
 11
-85.1678650319
 21
319.7813336469
 31
0.0
  0
LINE
  5
90
330
1F
100
AcDbEntity
  8
0
  6
Continuous
 62
     7
370
    25
100
AcDbLine
 10
-245.1678614556
 20
229.2127911665
 30
0.0
 11
-245.1678614556
 21
172.6442430832
 31
0.0
  0
LINE
  5
91
330
1F
100
AcDbEntity
  8
0
  6
Continuous
 62
     7
370
    25
100
AcDbLine
 10
-85.1678650319
 20
172.6442430832
 30
0.0
 11
-85.1678650319
 21
229.2127911665
 31
0.0
  0
LINE
  5
92
330
1F
100
AcDbEntity
  8
0
  6
Continuous
 62
     7
370
    25
100
AcDbLine
 10
-245.1678614556
 20
172.6442430832
 30
0.0
 11
-245.1678614556
 21
46.7813317396
 31
0.0
  0
LINE
  5
93
330
1F
100
AcDbEntity
  8
0
  6
Continuous
 62
     7
370
    25
100
AcDbLine
 10
-85.1678650319
 20
46.7813317396
 30
0.0
 11
-85.1678650319
 21
172.6442430832
 31
0.0
  0
LWPOLYLINE
  5
94
330
1F
100
AcDbEntity
  8
0
  6
Continuous
 62
     7
370
    25
100
AcDbPolyline
 90
      103
 70
   128
 43
0.0
 10
-245.1678614556
 20
319.7813336469
 10
-245.0161303818
 20
316.2989322759
 10
-244.5615034043
 20
312.8297333337
 10
-243.805709058
 20
309.3868796446
 10
-242.7516158163
 20
305.9834842302
 10
-241.403224641
 20
302.632421694
 10
-239.7656391799
 20
299.3464176275
 10
-237.8450881183
 20
296.1379294016
 10
-235.6488357722
 20
293.0191163637
 10
-233.1852342426
 20
290.001824937
 10
-230.463619107
 20
287.0975141145
 10
-227.4943094194
 20
284.317166052
 10
-224.2885779082
 20
281.6713456728
 10
-220.8585801959
 20
279.1700963594
 10
-217.2173287212
 20
276.8228952505
 10
-213.3786331355
 20
274.6386532404
 10
-209.3570593237
 20
272.6256553747
 10
-205.1678623497
 20
270.791531048
 10
-200.8269305765
 20
269.1432540037
 10
-196.3507335126
 20
267.6870529272
 10
-191.7562473058
 20
266.4284561493
 10
-187.0609025895
 20
265.3722618438
 10
-182.2825099766
 20
264.522448621
 10
-177.4391957983
 20
263.8822500326
 10
-172.5493317894
 20
263.454094968
 10
-167.631468033
 20
263.2396225549
 10
-162.7042584545
 20
263.2396225549
 10
-157.7863946981
 20
263.454094968
 10
-152.8965306893
 20
263.8822500326
 10
-148.053216511
 20
264.522448621
 10
-143.274823898
 20
265.3722618438
 10
-138.5794791817
 20
266.4284561493
 10
-133.984992975
 20
267.6870529272
 10
-129.508795911
 20
269.1432540037
 10
-125.1678641378
 20
270.791531048
 10
-120.9786671638
 20
272.6256553747
 10
-116.957093352
 20
274.6386532404
 10
-113.1183977663
 20
276.8228952505
 10
-109.4771462917
 20
279.1700963594
 10
-106.0471485793
 20
281.6713456728
 10
-102.8414170682
 20
284.317166052
 10
-99.8721073806
 20
287.0975141145
 10
-97.1504922449
 20
290.001824937
 10
-94.6868907153
 20
293.0191163637
 10
-92.4906383693
 20
296.1379294016
 10
-90.5700873076
 20
299.3464176275
 10
-88.9325018465
 20
302.632421694
 10
-87.5841106712
 20
305.9834842302
 10
-86.5300174295
 20
309.3868796446
 10
-85.7742230832
 20
312.8297333337
 10
-85.3195961058
 20
316.2989322759
 10
-85.1678650319
 20
319.7813336469
 10
-85.3195961058
 20
323.2637350179
 10
-85.7742230832
 20
326.7329339601
 10
-86.5300174295
 20
330.1757876493
 10
-87.5841106712
 20
333.5791830637
 10
-88.9325018465
 20
336.9302455999
 10
-90.5700873076
 20
340.2162496664
 10
-92.4906383693
 20
343.4247378923
 10
-94.6868907153
 20
346.5435509302
 10
-97.1504922449
 20
349.5608274557
 10
-99.8721073806
 20
352.4651531793
 10
-102.8414170682
 20
355.2455012418
 10
-106.0471485793
 20
357.8913216211
 10
-109.4771462917
 20
360.3925709345
 10
-113.1183977663
 20
362.7397720434
 10
-116.957093352
 20
364.9240140535
 10
-120.9786671638
 20
366.9370119192
 10
-125.1678641378
 20
368.7711362459
 10
-129.508795911
 20
370.4194132902
 10
-133.984992975
 20
371.8756143667
 10
-138.5794791817
 20
373.1341962434
 10
-143.274823898
 20
374.1904203512
 10
-148.053216511
 20
375.0402037718
 10
-152.8965306893
 20
375.6804172613
 10
-157.7863946981
 20
376.1085574247
 10
-162.7042584545
 20
376.3230447389
 10
-167.631468033
 20
376.3230447389
 10
-172.5493317894
 20
376.1085574247
 10
-177.4391957983
 20
375.6804172613
 10
-182.2825099766
 20
375.0402037718
 10
-187.0609025895
 20
374.1904203512
 10
-191.7562473058
 20
373.1341962434
 10
-196.3507335126
 20
371.8756143667
 10
-200.8269305765
 20
370.4194132902
 10
-205.1678623497
 20
368.7711362459
 10
-209.3570593237
 20
366.9370119192
 10
-213.3786331355
 20
364.9240140535
 10
-217.2173287212
 20
362.7397720434
 10
-220.8585801959
 20
360.3925709345
 10
-224.2885779082
 20
357.8913216211
 10
-227.4943094194
 20
355.2455012418
 10
-230.463619107
 20
352.4651531793
 10
-233.1852342426
 20
349.5608274557
 10
-235.6488357722
 20
346.5435509302
 10
-237.8450881183
 20
343.4247378923
 10
-239.7656391799
 20
340.2162496664
 10
-241.403224641
 20
336.9302455999
 10
-242.7516158163
 20
333.5791830637
 10
-243.805709058
 20
330.1757876493
 10
-244.5615034043
 20
326.7329339601
 10
-245.0161303818
 20
323.2637350179
 10
-245.1678614556
 20
319.7813336469
  0
LWPOLYLINE
  5
95
330
1F
100
AcDbEntity
  8
0
  6
Continuous
 62
     7
370
    25
100
AcDbPolyline
 90
       93
 70
   128
 43
0.0
 10
-230.5678601801
 20
319.7813336469
 10
-230.4153989493
 20
322.9371909715
 10
-229.9587230622
 20
326.0783259489
 10
-229.1999633848
 20
329.1901056387
 10
-228.1426514923
 20
332.2580163099
 10
-226.7917271196
 20
335.2677528478
 10
-225.1534822821
 20
338.2053081609
 10
-223.2355575501
 20
341.0569433786
 10
-221.0468936204
 20
343.809366665
 10
-218.5976940631
 20
346.449792824
 10
-215.8993806183
 20
348.9658538915
 10
-212.9645335912
 20
351.3458673574
 10
-209.8068396985
 20
353.578687153
 10
-206.4410138368
 20
355.6539420702
 10
-202.8827581048
 20
357.5619165518
 10
-199.1486537695
 20
359.293759308
 10
-195.256116563
 20
360.8413939096
 10
-191.2232942372
 20
362.1975783922
 10
-187.0689901948
 20
363.3559946634
 10
-182.8125722199
 20
364.3112187006
 10
-178.4738867968
 20
365.0588695623
 10
-174.0731622517
 20
365.5954007723
 10
-169.6309170179
 20
365.9183089353
 10
-165.1678632438
 20
366.0261039354
 10
-160.7048094697
 20
365.9183089353
 10
-156.2625642359
 20
365.5954007723
 10
-151.8618396908
 20
365.0588695623
 10
-147.5231542676
 20
364.3112187006
 10
-143.2667362928
 20
363.3559946634
 10
-139.1124322503
 20
362.1975783922
 10
-135.0796099245
 20
360.8413939096
 10
-131.1870727181
 20
359.293759308
 10
-127.4529683828
 20
357.5619165518
 10
-123.8947126507
 20
355.6539420702
 10
-120.528886789
 20
353.578687153
 10
-117.3711928963
 20
351.3458673574
 10
-114.4363458693
 20
348.9658538915
 10
-111.7380324244
 20
346.449792824
 10
-109.2888328671
 20
343.809366665
 10
-107.1001689374
 20
341.0569433786
 10
-105.1822442054
 20
338.2053081609
 10
-103.5439993679
 20
335.2677528478
 10
-102.1930749952
 20
332.2580163099
 10
-101.1357631027
 20
329.1901056387
 10
-100.3770034253
 20
326.0783259489
 10
-99.9203275382
 20
322.9371909715
 10
-99.7678663075
 20
319.7813336469
 10
-99.9203275382
 20
316.6254763223
 10
-100.3770034253
 20
313.484341345
 10
-101.1357631027
 20
310.3725616552
 10
-102.1930749952
 20
307.304650984
 10
-103.5439993679
 20
304.2948846437
 10
-105.1822442054
 20
301.3573591329
 10
-107.1001689374
 20
298.5057239153
 10
-109.2888328671
 20
295.7532857277
 10
-111.7380324244
 20
293.1128744699
 10
-114.4363458693
 20
290.5968134023
 10
-117.3711928963
 20
288.2168148376
 10
-120.528886789
 20
285.9839801408
 10
-123.8947126507
 20
283.9087252237
 10
-127.4529683828
 20
282.000735841
 10
-131.1870727181
 20
280.2688930847
 10
-135.0796099245
 20
278.7212733843
 10
-139.1124322503
 20
277.3650889017
 10
-143.2667362928
 20
276.2066726305
 10
-147.5231542676
 20
275.2514336921
 10
-151.8618396908
 20
274.5037977316
 10
-156.2625642359
 20
273.9672814228
 10
-160.7048094697
 20
273.6443583585
 10
-165.1678632438
 20
273.5365484573
 10
-169.6309170179
 20
273.6443583585
 10
-174.0731622517
 20
273.9672814228
 10
-178.4738867968
 20
274.5037977316
 10
-182.8125722199
 20
275.2514336921
 10
-187.0689901948
 20
276.2066726305
 10
-191.2232942372
 20
277.3650889017
 10
-195.256116563
 20
278.7212733843
 10
-199.1486537695
 20
280.2688930847
 10
-202.8827581048
 20
282.000735841
 10
-206.4410138368
 20
283.9087252237
 10
-209.8068396985
 20
285.9839801408
 10
-212.9645335912
 20
288.2168148376
 10
-215.8993806183
 20
290.5968134023
 10
-218.5976940631
 20
293.1128744699
 10
-221.0468936204
 20
295.7532857277
 10
-223.2355575501
 20
298.5057239153
 10
-225.1534822821
 20
301.3573591329
 10
-226.7917271196
 20
304.2948846437
 10
-228.1426514923
 20
307.304650984
 10
-229.1999633848
 20
310.3725616552
 10
-229.9587230622
 20
313.484341345
 10
-230.4153989493
 20
316.6254763223
 10
-230.5678601801
 20
319.7813336469
  0
LINE
  5
96
330
1F
100
AcDbEntity
  8
0
  6
Continuous
 62
     7
370
    25
100
AcDbLine
 10
-245.1678614556
 20
46.7813317396
 30
0.0
 11
-85.1678650319
 21
46.7813317396
 31
0.0
  0
LWPOLYLINE
  5
97
330
1F
100
AcDbEntity
  8
0
  6
Continuous
 62
     1
370
    25
100
AcDbPolyline
 90
       27
 70
   128
 43
0.0
 10
-165.1678632438
 20
172.6442430832
 10
-160.2429908193
 20
172.7515314438
 10
-155.3367997944
 20
173.0730090954
 10
-150.467902185
 20
173.6074392416
 10
-145.6547647208
 20
174.3527953245
 10
-140.9156497061
 20
175.3062461235
 10
-136.2685307353
 20
176.4642004587
 10
-131.7310358822
 20
177.8222326853
 10
-127.3203778505
 20
179.3752168037
 10
-123.0532887816
 20
181.1172519542
 10
-118.9459550619
 20
183.0417220213
 10
-115.0139595806
 20
185.141340337
 10
-111.2722109496
 20
187.4081347801
 10
-107.7349099755
 20
189.8335073806
 10
-104.4154714286
 20
192.4082641222
 10
-101.3264830648
 20
195.1226298429
 10
-98.4796758234
 20
197.9663078405
 10
-95.8858306944
 20
200.9285245754
 10
-93.5547973454
 20
203.9980147697
 10
-91.4954196155
 20
207.1631704189
 10
-89.7155057132
 20
210.4119662859
 10
-88.2218133151
 20
213.7320791103
 10
-87.0199974119
 20
217.1109025099
 10
-86.1146252095
 20
220.5356512882
 10
-85.5091314256
 20
223.9933018305
 10
-85.2058033883
 20
227.4707560159
 10
-85.1678650319
 20
229.2127911665
  0
LWPOLYLINE
  5
98
330
1F
100
AcDbEntity
  8
0
  6
Continuous
 62
     1
370
    25
100
AcDbPolyline
 90
       27
 70
   128
 43
0.0
 10
-245.1678614556
 20
229.2127911665
 10
-245.1299230992
 20
227.4707560159
 10
-244.826595062
 20
223.9933018305
 10
-244.221101278
 20
220.5356512882
 10
-243.3157290756
 20
217.1109025099
 10
-242.1139131724
 20
213.7320791103
 10
-240.6202207744
 20
210.4119662859
 10
-238.8403068721
 20
207.1631704189
 10
-236.7809291422
 20
203.9980147697
 10
-234.4498957932
 20
200.9285245754
 10
-231.8560506641
 20
197.9663078405
 10
-229.0092434227
 20
195.1226298429
 10
-225.920255059
 20
192.4082641222
 10
-222.6008165121
 20
189.8335073806
 10
-219.0635155379
 20
187.4081347801
 10
-215.3217669069
 20
185.141340337
 10
-211.3897714257
 20
183.0417220213
 10
-207.282437706
 20
181.1172519542
 10
-203.0153486371
 20
179.3752168037
 10
-198.6046906054
 20
177.8222326853
 10
-194.0671957522
 20
176.4642004587
 10
-189.4200767815
 20
175.3062461235
 10
-184.6809617668
 20
174.3527953245
 10
-179.8678243026
 20
173.6074392416
 10
-174.9989266932
 20
173.0730090954
 10
-170.0927356682
 20
172.7515314438
 10
-165.1678632438
 20
172.6442430832
  0
ARC
  5
99
330
1F
100
AcDbEntity
  8
0
  6
Continuous
 62
     1
370
    25
100
AcDbCircle
 10
-165.1678632438
 20
183.5913330008
 30
0.0
 40
91.86773753736591
100
AcDbArc
 50
81.7010107295
 51
98.2989892705
  0
LINE
  5
9A
330
1F
100
AcDbEntity
  8
0
  6
Continuous
 62
     1
370
    25
100
AcDbLine
 10
-165.1678632438
 20
172.6442430832
 30
0.0
 11
-85.1678650319
 21
172.6442430832
 31
0.0
  0
LINE
  5
9B
330
1F
100
AcDbEntity
  8
0
  6
Continuous
 62
     1
370
    25
100
AcDbLine
 10
-245.1678614556
 20
172.6442430832
 30
0.0
 11
-165.1678632438
 21
172.6442430832
 31
0.0
  0
LINE
  5
9C
330
1F
100
AcDbEntity
  8
0
  6
Continuous
 62
     7
370
    25
100
AcDbLine
 10
417.3278656153
 20
172.6442430832
 30
0.0
 11
417.3278656153
 21
46.7813317396
 31
0.0
  0
LINE
  5
9D
330
1F
100
AcDbEntity
  8
0
  6
Continuous
 62
     7
370
    25
100
AcDbLine
 10
577.327862039
 20
46.7813317396
 30
0.0
 11
577.327862039
 21
172.6442430832
 31
0.0
  0
LINE
  5
9E
330
1F
100
AcDbEntity
  8
0
  6
Continuous
 62
     7
370
    25
100
AcDbLine
 10
577.327862039
 20
172.6442430832
 30
0.0
 11
577.327862039
 21
229.2127911665
 31
0.0
  0
LINE
  5
9F
330
1F
100
AcDbEntity
  8
0
  6
Continuous
 62
     7
370
    25
100
AcDbLine
 10
417.3278656153
 20
229.2127911665
 30
0.0
 11
417.3278656153
 21
172.6442430832
 31
0.0
  0
LINE
  5
A0
330
1F
100
AcDbEntity
  8
0
  6
Continuous
 62
     7
370
    25
100
AcDbLine
 10
417.3278656153
 20
319.7813336469
 30
0.0
 11
417.3278656153
 21
229.2127911665
 31
0.0
  0
LINE
  5
A1
330
1F
100
AcDbEntity
  8
0
  6
Continuous
 62
     7
370
    25
100
AcDbLine
 10
577.327862039
 20
229.2127911665
 30
0.0
 11
577.327862039
 21
319.7813336469
 31
0.0
  0
LINE
  5
A2
330
1F
100
AcDbEntity
  8
0
  6
Continuous
 62
     7
370
    25
100
AcDbLine
 10
417.3278656153
 20
46.7813317396
 30
0.0
 11
577.327862039
 21
46.7813317396
 31
0.0
  0
LWPOLYLINE
  5
A3
330
1F
100
AcDbEntity
  8
0
  6
Continuous
 62
     7
370
    25
100
AcDbPolyline
 90
       52
 70
   128
 43
0.0
 10
417.3278656153
 20
319.7813336469
 10
417.4795966892
 20
323.2637350179
 10
417.9342236666
 20
326.7329339601
 10
418.6900180129
 20
330.1757876493
 10
419.7441112546
 20
333.5791830637
 10
421.0925024299
 20
336.9302455999
 10
422.730087891
 20
340.2162496664
 10
424.6506389527
 20
343.4247378923
 10
426.8468912987
 20
346.5435509302
 10
429.3104928283
 20
349.5608274557
 10
432.032107964
 20
352.4651531793
 10
435.0014176516
 20
355.2455012418
 10
438.2071491627
 20
357.8913216211
 10
441.6371468751
 20
360.3925709345
 10
445.2783983497
 20
362.7397720434
 10
449.1170939354
 20
364.9240140535
 10
453.1386677472
 20
366.9370119192
 10
457.3278647212
 20
368.7711362459
 10
461.6687964944
 20
370.4194132902
 10
466.1449935583
 20
371.8756143667
 10
470.7394797651
 20
373.1341962434
 10
475.4348244814
 20
374.1904203512
 10
480.2132170944
 20
375.0402037718
 10
485.0565312727
 20
375.6804172613
 10
489.9463952815
 20
376.1085574247
 10
494.8642590379
 20
376.3230447389
 10
499.7914686164
 20
376.3230447389
 10
504.7093323728
 20
376.1085574247
 10
509.5991963817
 20
375.6804172613
 10
514.44251056
 20
375.0402037718
 10
519.2209031729
 20
374.1904203512
 10
523.9162478892
 20
373.1341962434
 10
528.510734096
 20
371.8756143667
 10
532.9869311599
 20
370.4194132902
 10
537.3278629331
 20
368.7711362459
 10
541.5170599071
 20
366.9370119192
 10
545.5386337189
 20
364.9240140535
 10
549.3773293046
 20
362.7397720434
 10
553.0185807793
 20
360.3925709345
 10
556.4485784916
 20
357.8913216211
 10
559.6543100027
 20
355.2455012418
 10
562.6236196904
 20
352.4651531793
 10
565.345234826
 20
349.5608274557
 10
567.8088363556
 20
346.5435509302
 10
570.0050887017
 20
343.4247378923
 10
571.9256397633
 20
340.2162496664
 10
573.5632252244
 20
336.9302455999
 10
574.9116163997
 20
333.5791830637
 10
575.9657096414
 20
330.1757876493
 10
576.7215039877
 20
326.7329339601
 10
577.1761309652
 20
323.2637350179
 10
577.327862039
 20
319.7813336469
  0
LINE
  5
A4
330
1F
100
AcDbEntity
  8
0
  6
Continuous
 62
     1
370
    25
100
AcDbLine
 10
417.3278656153
 20
172.6442430832
 30
0.0
 11
577.327862039
 21
172.6442430832
 31
0.0
  0
LWPOLYLINE
  5
A5
330
1F
100
AcDbEntity
  8
0
  6
Continuous
 62
     1
370
    25
100
AcDbPolyline
 90
       53
 70
   128
 43
0.0
 10
417.3278656153
 20
229.2127911665
 10
417.3658039717
 20
230.954826317
 10
417.669132009
 20
234.4322805025
 10
418.2746257929
 20
237.8899310447
 10
419.1799979953
 20
241.3146649219
 10
420.3818138985
 20
244.6935032226
 10
421.8755062966
 20
248.0136160471
 10
423.6554201989
 20
251.262411914
 10
425.7147979288
 20
254.4275526621
 10
428.0458312778
 20
257.4970577575
 10
430.6396764068
 20
260.4592744924
 10
433.4864836482
 20
263.30295249
 10
436.575472012
 20
266.0173182108
 10
439.8949105589
 20
268.5920749523
 10
443.432211533
 20
271.0174475528
 10
447.173960164
 20
273.284241996
 10
451.1059556453
 20
275.3838603117
 10
455.213289365
 20
277.3083303787
 10
459.4803784339
 20
279.0503655292
 10
463.8910364656
 20
280.6033496477
 10
468.4285313187
 20
281.9613818742
 10
473.0756502895
 20
283.1193362095
 10
477.8147653041
 20
284.0727870084
 10
482.6279027684
 20
284.8181430914
 10
487.4968003778
 20
285.3525732376
 10
492.4029914027
 20
285.674035988
 10
497.3278638272
 20
285.7813243486
 10
502.2527362516
 20
285.674035988
 10
507.1589272766
 20
285.3525732376
 10
512.027824886
 20
284.8181430914
 10
516.8409623502
 20
284.0727870084
 10
521.5800773649
 20
283.1193362095
 10
526.2271963356
 20
281.9613818742
 10
530.7646911888
 20
280.6033496477
 10
535.1753492205
 20
279.0503655292
 10
539.4424382893
 20
277.3083303787
 10
543.5497720091
 20
275.3838603117
 10
547.4817674903
 20
273.284241996
 10
551.2235161213
 20
271.0174475528
 10
554.7608170955
 20
268.5920749523
 10
558.0802556424
 20
266.0173182108
 10
561.1692440061
 20
263.30295249
 10
564.0160512475
 20
260.4592744924
 10
566.6098963766
 20
257.4970577575
 10
568.9409297256
 20
254.4275526621
 10
571.0003074555
 20
251.262411914
 10
572.7802213578
 20
248.0136160471
 10
574.2739137558
 20
244.6935032226
 10
575.475729659
 20
241.3146649219
 10
576.3811018614
 20
237.8899310447
 10
576.9865956454
 20
234.4322805025
 10
577.2899236826
 20
230.954826317
 10
577.327862039
 20
229.2127911665
  0
LINE
  5
A6
330
1F
100
AcDbEntity
  8
0
  6
Continuous
 62
     7
370
    25
100
AcDbLine
 10
241.8772321111
 20
578.5690994986
 30
0.0
 11
151.3086896306
 21
578.5690994986
 31
0.0
  0
LINE
  5
A7
330
1F
100
AcDbEntity
  8
0
  6
Continuous
 62
     7
370
    25
100
AcDbLine
 10
151.3086896306
 20
418.5691030749
 30
0.0
 11
241.8772321111
 21
418.5691030749
 31
0.0
  0
LINE
  5
A8
330
1F
100
AcDbEntity
  8
0
  6
Continuous
 62
     7
370
    25
100
AcDbLine
 10
151.3086896306
 20
578.5690994986
 30
0.0
 11
127.8772320515
 21
578.5690994986
 31
0.0
  0
LINE
  5
A9
330
1F
100
AcDbEntity
  8
0
  6
Continuous
 62
     7
370
    25
100
AcDbLine
 10
127.8772320515
 20
418.5691030749
 30
0.0
 11
151.3086896306
 21
418.5691030749
 31
0.0
  0
CIRCLE
  5
AA
330
1F
100
AcDbEntity
  8
0
  6
Continuous
 62
     7
370
    25
100
AcDbCircle
 10
127.8772320515
 20
498.5691012868
 30
0.0
 40
65.39999999999992
  0
CIRCLE
  5
AB
330
1F
100
AcDbEntity
  8
0
  6
Continuous
 62
     7
370
    25
100
AcDbCircle
 10
127.8772320515
 20
498.5691012868
 30
0.0
 40
80.00000000000006
  0
LWPOLYLINE
  5
AC
330
1F
100
AcDbEntity
  8
0
  6
Continuous
 62
     7
370
    25
100
AcDbPolyline
 90
       53
 70
   128
 43
0.0
 10
241.8772321111
 20
578.5690994986
 10
245.3596409327
 20
578.4173684248
 10
248.8288398749
 20
577.9627414473
 10
252.2716712123
 20
577.206947101
 10
255.6750740773
 20
576.1528538593
 10
259.0261366135
 20
574.804462684
 10
262.31214068
 20
573.1668772229
 10
265.5206438071
 20
571.2463261613
 10
268.6394419438
 20
569.0500738152
 10
271.6567333704
 20
566.5864722856
 10
274.5610590941
 20
563.86485715
 10
277.3413922554
 20
560.8955474623
 10
279.9872126347
 20
557.6898159512
 10
282.4884619481
 20
554.2598182388
 10
284.835663057
 20
550.6185667642
 10
287.0199050671
 20
546.7798711785
 10
289.0329029328
 20
542.7582973667
 10
290.8670272595
 20
538.5691003927
 10
292.5153192049
 20
534.2281686195
 10
293.9715202815
 20
529.7519715556
 10
295.2301021582
 20
525.1574853488
 10
296.2863113648
 20
520.4621406325
 10
297.1361245877
 20
515.6837480196
 10
297.7763082749
 20
510.8404338413
 10
298.2044633395
 20
505.9505698324
 10
298.4189506537
 20
501.032706076
 10
298.4189506537
 20
496.1054964975
 10
298.2044633395
 20
491.1876327411
 10
297.7763082749
 20
486.2977687322
 10
297.1361245877
 20
481.454454554
 10
296.2863113648
 20
476.676061941
 10
295.2301021582
 20
471.9807172247
 10
293.9715202815
 20
467.3862310179
 10
292.5153192049
 20
462.910033954
 10
290.8670272595
 20
458.5691021808
 10
289.0329029328
 20
454.3799052068
 10
287.0199050671
 20
450.358331395
 10
284.835663057
 20
446.5196358093
 10
282.4884619481
 20
442.8783843347
 10
279.9872126347
 20
439.4483866223
 10
277.3413922554
 20
436.2426551112
 10
274.5610590941
 20
433.2733454236
 10
271.6567333704
 20
430.5517302879
 10
268.6394419438
 20
428.0881287583
 10
265.5206438071
 20
425.8918764123
 10
262.31214068
 20
423.9713253506
 10
259.0261366135
 20
422.3337398895
 10
255.6750740773
 20
420.9853487142
 10
252.2716712123
 20
419.9312554725
 10
248.8288398749
 20
419.1754611262
 10
245.3596409327
 20
418.7208341488
 10
241.8772321111
 20
418.5691030749
 10
241.8772321111
 20
418.5691030749
  0
LWPOLYLINE
  5
AD
330
1F
100
AcDbEntity
  8
0
  6
Continuous
 62
     1
370
    25
100
AcDbPolyline
 90
       27
 70
   128
 43
0.0
 10
207.8772302634
 20
498.5691012868
 10
207.7699419028
 20
493.6442288623
 10
207.4484717018
 20
488.7380378374
 10
206.9140415555
 20
483.869140228
 10
206.1686854726
 20
479.0560027637
 10
205.2152272231
 20
474.3168877491
 10
204.057287789
 20
469.6697687783
 10
202.6992481119
 20
465.1322739252
 10
201.1462639934
 20
460.7216158935
 10
199.4042362935
 20
456.4545268246
 10
197.4797587759
 20
452.3471931049
 10
195.3801404602
 20
448.4151976236
 10
193.113346017
 20
444.6734489926
 10
190.6879734165
 20
441.1361480185
 10
188.1132166749
 20
437.8167094716
 10
185.3988509542
 20
434.7277211078
 10
182.5551692313
 20
431.8809138664
 10
179.592959947
 20
429.2870687374
 10
176.5234585768
 20
426.9560353883
 10
173.3583066529
 20
424.8966576585
 10
170.1095145112
 20
423.1167437562
 10
166.7894054121
 20
421.6230513581
 10
163.4105708367
 20
420.4212354549
 10
159.9858332342
 20
419.5158632525
 10
156.5281752414
 20
418.9103694686
 10
153.0507210559
 20
418.6070414313
 10
151.3086896306
 20
418.5691030749
  0
LWPOLYLINE
  5
AE
330
1F
100
AcDbEntity
  8
0
  6
Continuous
 62
     1
370
    25
100
AcDbPolyline
 90
       27
 70
   128
 43
0.0
 10
151.3086896306
 20
578.5690994986
 10
153.0507210559
 20
578.5311611422
 10
156.5281752414
 20
578.227833105
 10
159.9858332342
 20
577.622339321
 10
163.4105708367
 20
576.7169671186
 10
166.7894054121
 20
575.5151512154
 10
170.1095145112
 20
574.0214588174
 10
173.3583066529
 20
572.2415449151
 10
176.5234585768
 20
570.1821671852
 10
179.592959947
 20
567.8511338361
 10
182.5551692313
 20
565.2572887071
 10
185.3988509542
 20
562.4104814657
 10
188.1132166749
 20
559.3214931019
 10
190.6879734165
 20
556.0020545551
 10
193.113346017
 20
552.4647535809
 10
195.3801404602
 20
548.7230049499
 10
197.4797587759
 20
544.7910094687
 10
199.4042362935
 20
540.6836757489
 10
201.1462639934
 20
536.41658668
 10
202.6992481119
 20
532.0059286483
 10
204.057287789
 20
527.4684337952
 10
205.2152272231
 20
522.8213148245
 10
206.1686854726
 20
518.0821998098
 10
206.9140415555
 20
513.2690623456
 10
207.4484717018
 20
508.4001647361
 10
207.7699419028
 20
503.4939737112
 10
207.8772302634
 20
498.5691012868
  0
LWPOLYLINE
  5
AF
330
1F
100
AcDbEntity
  8
0
  6
Continuous
 62
     1
370
    25
100
AcDbPolyline
 90
       41
 70
   128
 43
0.0
 10
141.6030622936
 20
562.5125246175
 10
138.8319967231
 20
561.5438895353
 10
135.8222545973
 20
560.1929651626
 10
132.8847174449
 20
558.5547203251
 10
130.0330815288
 20
556.6367955931
 10
127.2806422935
 20
554.4481316634
 10
124.6402330148
 20
551.9989321061
 10
122.1241642638
 20
549.3006186613
 10
119.744167096
 20
546.3657716342
 10
117.5113389185
 20
543.2080777415
 10
115.436088658
 20
539.8422518798
 10
113.5280936873
 20
536.2839961477
 10
111.7962490684
 20
532.5498918124
 10
110.248629368
 20
528.657354606
 10
108.892452336
 20
524.6245322802
 10
107.7340379274
 20
520.4702282377
 10
106.7787878132
 20
516.2138102629
 10
106.0311574406
 20
511.8751248398
 10
105.4946318186
 20
507.4744002947
 10
105.1717124796
 20
503.0321550609
 10
105.0639063037
 20
498.5691012868
 10
105.1717124796
 20
494.1060475127
 10
105.4946318186
 20
489.6638022789
 10
106.0311574406
 20
485.2630777337
 10
106.7787878132
 20
480.9243923106
 10
107.7340379274
 20
476.6679743358
 10
108.892452336
 20
472.5136702933
 10
110.248629368
 20
468.4808479675
 10
111.7962490684
 20
464.5883107611
 10
113.5280936873
 20
460.8542064258
 10
115.436088658
 20
457.2959506937
 10
117.5113389185
 20
453.930124832
 10
119.744167096
 20
450.7724309393
 10
122.1241642638
 20
447.8375839122
 10
124.6402330148
 20
445.1392704674
 10
127.2806422935
 20
442.6900709101
 10
130.0330815288
 20
440.5014069804
 10
132.8847174449
 20
438.5834822484
 10
135.8222545973
 20
436.9452374109
 10
138.8319967231
 20
435.5943130382
 10
141.6030622936
 20
434.625677956
  0
INSERT
  5
BB
330
1F
100
AcDbEntity
  8
FORMAT
 62
     7
100
AcDbBlockReference
  2
SW_CENTERMARKSYMBOL_0
 10
127.8772320515
 20
498.5691012868
 30
0.0
  0
LINE
  5
BC
330
1F
100
AcDbEntity
  8
0
  6
Continuous
 62
     7
370
    25
100
AcDbLine
 10
241.8772321111
 20
-69.5408601897
 30
0.0
 11
151.3086896306
 21
-69.5408601897
 31
0.0
  0
LINE
  5
BD
330
1F
100
AcDbEntity
  8
0
  6
Continuous
 62
     7
370
    25
100
AcDbLine
 10
151.3086896306
 20
-229.5408566134
 30
0.0
 11
241.8772321111
 21
-229.5408566134
 31
0.0
  0
LINE
  5
BE
330
1F
100
AcDbEntity
  8
0
  6
Continuous
 62
     7
370
    25
100
AcDbLine
 10
127.8772320515
 20
-229.5408566134
 30
0.0
 11
151.3086896306
 21
-229.5408566134
 31
0.0
  0
LINE
  5
BF
330
1F
100
AcDbEntity
  8
0
  6
Continuous
 62
     7
370
    25
100
AcDbLine
 10
151.3086896306
 20
-69.5408601897
 30
0.0
 11
127.8772320515
 21
-69.5408601897
 31
0.0
  0
LWPOLYLINE
  5
C0
330
1F
100
AcDbEntity
  8
0
  6
Continuous
 62
     7
370
    25
100
AcDbPolyline
 90
      103
 70
   128
 43
0.0
 10
241.8772321111
 20
-229.5408566134
 10
245.3596409327
 20
-229.3891255396
 10
248.8288398749
 20
-228.9344985621
 10
252.2716712123
 20
-228.1787042158
 10
255.6750740773
 20
-227.1246109741
 10
259.0261366135
 20
-225.7762197988
 10
262.31214068
 20
-224.1386343377
 10
265.5206438071
 20
-222.218083276
 10
268.6394419438
 20
-220.02183093
 10
271.6567333704
 20
-217.5582294004
 10
274.5610590941
 20
-214.8366142647
 10
277.3413922554
 20
-211.8673045771
 10
279.9872126347
 20
-208.661573066
 10
282.4884619481
 20
-205.2315753536
 10
284.835663057
 20
-201.590323879
 10
287.0199050671
 20
-197.7516282933
 10
289.0329029328
 20
-193.7300544815
 10
290.8670272595
 20
-189.5408575075
 10
292.5153192049
 20
-185.1999257343
 10
293.9715202815
 20
-180.7237286704
 10
295.2301021582
 20
-176.1292424636
 10
296.2863113648
 20
-171.4338977473
 10
297.1361245877
 20
-166.6555051344
 10
297.7763082749
 20
-161.8121909561
 10
298.2044633395
 20
-156.9223269472
 10
298.4189506537
 20
-152.0044631908
 10
298.4189506537
 20
-147.0772536123
 10
298.2044633395
 20
-142.1593898559
 10
297.7763082749
 20
-137.269525847
 10
297.1361245877
 20
-132.4262116687
 10
296.2863113648
 20
-127.6478190558
 10
295.2301021582
 20
-122.9524743395
 10
293.9715202815
 20
-118.3579881327
 10
292.5153192049
 20
-113.8817910688
 10
290.8670272595
 20
-109.5408592956
 10
289.0329029328
 20
-105.3516623216
 10
287.0199050671
 20
-101.3300885098
 10
284.835663057
 20
-97.4913929241
 10
282.4884619481
 20
-93.8501414495
 10
279.9872126347
 20
-90.4201437371
 10
277.3413922554
 20
-87.214412226
 10
274.5610590941
 20
-84.2451025384
 10
271.6567333704
 20
-81.5234874027
 10
268.6394419438
 20
-79.0598858731
 10
265.5206438071
 20
-76.8636335271
 10
262.31214068
 20
-74.9430824654
 10
259.0261366135
 20
-73.3054970043
 10
255.6750740773
 20
-71.957105829
 10
252.2716712123
 20
-70.9030125873
 10
248.8288398749
 20
-70.147218241
 10
245.3596409327
 20
-69.6925912635
 10
241.8772321111
 20
-69.5408601897
 10
238.3948232895
 20
-69.6925912635
 10
234.9256168968
 20
-70.147218241
 10
231.4827930099
 20
-70.9030125873
 10
228.079390145
 20
-71.957105829
 10
224.7283276087
 20
-73.3054970043
 10
221.4423160917
 20
-74.9430824654
 10
218.2338278657
 20
-76.8636335271
 10
215.1150222785
 20
-79.0598858731
 10
212.0977308518
 20
-81.5234874027
 10
209.1934051281
 20
-84.2451025384
 10
206.4130645162
 20
-87.214412226
 10
203.7672515875
 20
-90.4201437371
 10
201.2660022742
 20
-93.8501414495
 10
198.9188011652
 20
-97.4913929241
 10
196.7345591551
 20
-101.3300885098
 10
194.7215612895
 20
-105.3516623216
 10
192.8874369627
 20
-109.5408592956
 10
191.2391524679
 20
-113.8817910688
 10
189.7829476661
 20
-118.3579881327
 10
188.524362064
 20
-122.9524743395
 10
187.4681565827
 20
-127.6478190558
 10
186.6183470851
 20
-132.4262116687
 10
185.9781522221
 20
-137.269525847
 10
185.5500008828
 20
-142.1593898559
 10
185.3355172938
 20
-147.0772536123
 10
185.3355172938
 20
-152.0044631908
 10
185.5500008828
 20
-156.9223269472
 10
185.9781522221
 20
-161.8121909561
 10
186.6183470851
 20
-166.6555051344
 10
187.4681565827
 20
-171.4338977473
 10
188.524362064
 20
-176.1292424636
 10
189.7829476661
 20
-180.7237286704
 10
191.2391524679
 20
-185.1999257343
 10
192.8874369627
 20
-189.5408575075
 10
194.7215612895
 20
-193.7300544815
 10
196.7345591551
 20
-197.7516282933
 10
198.9188011652
 20
-201.590323879
 10
201.2660022742
 20
-205.2315753536
 10
203.7672515875
 20
-208.661573066
 10
206.4130645162
 20
-211.8673045771
 10
209.1934051281
 20
-214.8366142647
 10
212.0977308518
 20
-217.5582294004
 10
215.1150222785
 20
-220.02183093
 10
218.2338278657
 20
-222.218083276
 10
221.4423160917
 20
-224.1386343377
 10
224.7283276087
 20
-225.7762197988
 10
228.079390145
 20
-227.1246109741
 10
231.4827930099
 20
-228.1787042158
 10
234.9256168968
 20
-228.9344985621
 10
238.3948232895
 20
-229.3891255396
 10
241.8772321111
 20
-229.5408566134
  0
LWPOLYLINE
  5
C1
330
1F
100
AcDbEntity
  8
0
  6
Continuous
 62
     7
370
    25
100
AcDbPolyline
 90
       93
 70
   128
 43
0.0
 10
241.8772321111
 20
-214.9408553379
 10
238.7213747865
 20
-214.7883941071
 10
235.5802323586
 20
-214.33171822
 10
232.4684526688
 20
-213.5729585426
 10
229.4005419976
 20
-212.5156466501
 10
226.3907980091
 20
-211.1647222774
 10
223.4532575971
 20
-209.5264774399
 10
220.6016223794
 20
-207.6085527079
 10
217.8491841918
 20
-205.4198887782
 10
215.2087729341
 20
-202.9706892209
 10
212.6927044159
 20
-200.2723757761
 10
210.3127133018
 20
-197.337528749
 10
208.079878605
 20
-194.1798348563
 10
206.0046311385
 20
-190.8140089946
 10
204.0966343051
 20
-187.2557532625
 10
202.3647915489
 20
-183.5216489272
 10
200.8171718484
 20
-179.6291117208
 10
199.4609948164
 20
-175.596289395
 10
198.3025785452
 20
-171.4419853525
 10
197.3473321563
 20
-167.1855673777
 10
196.5997036463
 20
-162.8468819546
 10
196.0631724364
 20
-158.4461574094
 10
195.7402568227
 20
-154.0039121756
 10
195.6324469215
 20
-149.5408584015
 10
195.7402568227
 20
-145.0778046275
 10
196.0631724364
 20
-140.6355593937
 10
196.5997036463
 20
-136.2348348485
 10
197.3473321563
 20
-131.8961494254
 10
198.3025785452
 20
-127.6397314506
 10
199.4609948164
 20
-123.4854274081
 10
200.8171718484
 20
-119.4526050823
 10
202.3647915489
 20
-115.5600678759
 10
204.0966343051
 20
-111.8259635406
 10
206.0046311385
 20
-108.2677078085
 10
208.079878605
 20
-104.9018819468
 10
210.3127133018
 20
-101.7441880541
 10
212.6927044159
 20
-98.809341027
 10
215.2087729341
 20
-96.1110275822
 10
217.8491841918
 20
-93.6618280249
 10
220.6016223794
 20
-91.4731640952
 10
223.4532575971
 20
-89.5552393632
 10
226.3907980091
 20
-87.9169945257
 10
229.4005419976
 20
-86.566070153
 10
232.4684526688
 20
-85.5087582605
 10
235.5802323586
 20
-84.7499985831
 10
238.7213747865
 20
-84.293322696
 10
241.8772321111
 20
-84.1408614652
 10
245.0330894357
 20
-84.293322696
 10
248.1742318636
 20
-84.7499985831
 10
251.2860115534
 20
-85.5087582605
 10
254.3539222247
 20
-86.566070153
 10
257.3636736638
 20
-87.9169945257
 10
260.3011991745
 20
-89.5552393632
 10
263.1528343922
 20
-91.4731640952
 10
265.9052725798
 20
-93.6618280249
 10
268.5456838376
 20
-96.1110275822
 10
271.0617598063
 20
-98.809341027
 10
273.441758371
 20
-101.7441880541
 10
275.6745781666
 20
-104.9018819468
 10
277.7498330838
 20
-108.2677078085
 10
279.6578224665
 20
-111.8259635406
 10
281.3896652228
 20
-115.5600678759
 10
282.9372849232
 20
-119.4526050823
 10
284.2934694058
 20
-123.4854274081
 10
285.451885677
 20
-127.6397314506
 10
286.4071395165
 20
-131.8961494254
 10
287.1547605759
 20
-136.2348348485
 10
287.6912917859
 20
-140.6355593937
 10
288.0142148501
 20
-145.0778046275
 10
288.1220098502
 20
-149.5408584015
 10
288.0142148501
 20
-154.0039121756
 10
287.6912917859
 20
-158.4461574094
 10
287.1547605759
 20
-162.8468819546
 10
286.4071395165
 20
-167.1855673777
 10
285.451885677
 20
-171.4419853525
 10
284.2934694058
 20
-175.596289395
 10
282.9372849232
 20
-179.6291117208
 10
281.3896652228
 20
-183.5216489272
 10
279.6578224665
 20
-187.2557532625
 10
277.7498330838
 20
-190.8140089946
 10
275.6745781666
 20
-194.1798348563
 10
273.441758371
 20
-197.337528749
 10
271.0617598063
 20
-200.2723757761
 10
268.5456838376
 20
-202.9706892209
 10
265.9052725798
 20
-205.4198887782
 10
263.1528343922
 20
-207.6085527079
 10
260.3011991745
 20
-209.5264774399
 10
257.3636736638
 20
-211.1647222774
 10
254.3539222247
 20
-212.5156466501
 10
251.2860115534
 20
-213.5729585426
 10
248.1742318636
 20
-214.33171822
 10
245.0330894357
 20
-214.7883941071
 10
241.8772321111
 20
-214.9408553379
  0
ARC
  5
C2
330
1F
100
AcDbEntity
  8
0
  6
Continuous
 62
     7
370
    25
100
AcDbCircle
 10
127.8772320515
 20
-149.5408584015
 30
0.0
 40
80.0
100
AcDbArc
 50
90.0
 51
270.0
  0
LWPOLYLINE
  5
C3
330
1F
100
AcDbEntity
  8
0
  6
Continuous
 62
     1
370
    25
100
AcDbPolyline
 90
       53
 70
   128
 43
0.0
 10
151.3086896306
 20
-69.5408601897
 10
149.5666582054
 20
-69.5787985461
 10
146.0892021573
 20
-69.8821265833
 10
142.6315469584
 20
-70.4876203673
 10
139.206806562
 20
-71.3929925697
 10
135.8279729179
 20
-72.5948084729
 10
132.5078628874
 20
-74.088500871
 10
129.2590708621
 20
-75.8684147732
 10
126.0939204516
 20
-77.9277925031
 10
123.024418383
 20
-80.2588258522
 10
120.0622081673
 20
-82.8526709812
 10
117.2185264445
 20
-85.6994782226
 10
114.5041607237
 20
-88.7884665864
 10
111.9294077075
 20
-92.1079051333
 10
109.5040313816
 20
-95.6452061074
 10
107.2372369385
 20
-99.3869547384
 10
105.1376204854
 20
-103.3189502196
 10
103.2131448305
 20
-107.4262839394
 10
101.4711134052
 20
-111.6933730083
 10
99.9181330121
 20
-116.10403104
 10
98.5600951976
 20
-120.6415258931
 10
97.4021501756
 20
-125.2886448639
 10
96.4486900634
 20
-130.0277598785
 10
95.7033339805
 20
-134.8408973428
 10
95.1689075595
 20
-139.7097949522
 10
94.8474373585
 20
-144.6159859771
 10
94.7401452726
 20
-149.5408584015
 10
94.8474373585
 20
-154.465730826
 10
95.1689075595
 20
-159.3719218509
 10
95.7033339805
 20
-164.2408194603
 10
96.4486900634
 20
-169.0539569246
 10
97.4021501756
 20
-173.7930719392
 10
98.5600951976
 20
-178.44019091
 10
99.9181330121
 20
-182.9776857631
 10
101.4711134052
 20
-187.3883437948
 10
103.2131448305
 20
-191.6554328637
 10
105.1376204854
 20
-195.7627665835
 10
107.2372369385
 20
-199.6947620647
 10
109.5040313816
 20
-203.4365106957
 10
111.9294077075
 20
-206.9738116698
 10
114.5041607237
 20
-210.2932502167
 10
117.2185264445
 20
-213.3822385805
 10
120.0622081673
 20
-216.2290458219
 10
123.024418383
 20
-218.8228909509
 10
126.0939204516
 20
-221.1539243
 10
129.2590708621
 20
-223.2133020299
 10
132.5078628874
 20
-224.9932159321
 10
135.8279729179
 20
-226.4869083302
 10
139.206806562
 20
-227.6887242334
 10
142.6315469584
 20
-228.5940964358
 10
146.0892021573
 20
-229.1995902197
 10
149.5666582054
 20
-229.502918257
 10
151.3086896306
 20
-229.5408566134
  0
ARC
  5
C4
330
1F
100
AcDbEntity
  8
0
  6
Continuous
 62
     1
370
    25
100
AcDbCircle
 10
105.6880880526
 20
-149.5408584015
 30
0.0
 40
91.86688991976617
100
AcDbArc
 50
351.7009336181
 51
8.2990663819
  0
INSERT
  5
D0
330
1F
100
AcDbEntity
  8
FORMAT
 62
     7
100
AcDbBlockReference
  2
SW_CENTERMARKSYMBOL_1
 10
127.8772320515
 20
-149.5408584015
 30
0.0
  0
LINE
  5
D1
330
1F
100
AcDbEntity
  8
0
  6
Continuous
 62
     7
370
    25
100
AcDbLine
 10
366.3344981619
 20
-214.8803722783
 30
0.0
 11
366.3344981619
 21
-317.6525760931
 31
0.0
  0
LINE
  5
D2
330
1F
100
AcDbEntity
  8
0
  6
Continuous
 62
     7
370
    25
100
AcDbLine
 10
526.3344928948
 20
-317.6525760931
 30
0.0
 11
526.3344928948
 21
-214.8803722783
 31
0.0
  0
LINE
  5
D3
330
1F
100
AcDbEntity
  8
0
  6
Continuous
 62
     7
370
    25
100
AcDbLine
 10
457.6626359091
 20
-8.2016823038
 30
0.0
 11
393.6210047004
 21
-119.1250281034
 31
0.0
  0
LINE
  5
D4
330
1F
100
AcDbEntity
  8
0
  6
Continuous
 62
     7
370
    25
100
AcDbLine
 10
532.1850707923
 20
-199.1250284357
 30
0.0
 11
596.2267066108
 21
-88.2016678075
 31
0.0
  0
SPLINE
  5
D5
330
1F
100
AcDbEntity
  8
0
  6
Continuous
 62
     7
370
    25
100
AcDbSpline
210
0.0
220
0.0
230
1.0
 70
     8
 71
     3
 72
    23
 73
    19
 74
     0
 42
0.000000001
 43
0.00000001
 40
0.0
 40
0.0
 40
0.0
 40
0.0
 40
0.0376857464855449
 40
0.1024897954736876
 40
0.1673777609776415
 40
0.232392567496262
 40
0.2975796950517079
 40
0.3629814485187874
 40
0.4286354099011977
 40
0.4945711170084255
 40
0.5608080070408745
 40
0.6273509411082755
 40
0.6941869496389126
 40
0.7612808471902083
 40
0.8285721927819932
 40
0.8959573071709614
 40
0.9632972754969991
 40
1.0
 40
1.0
 40
1.0
 40
1.0
 10
393.6210047003859
 20
-119.1250281033887
 30
0.0
 10
392.9801525522115
 20
-120.2487939830504
 30
0.0
 10
391.2372971832603
 20
-123.3049769144673
 30
0.0
 10
388.5372891745418
 20
-128.3759118217023
 30
0.0
 10
385.5726923579662
 20
-134.35589815669
 30
0.0
 10
382.7965463564194
 20
-140.4264648898278
 30
0.0
 10
380.2104741697239
 20
-146.5806923828126
 30
0.0
 10
377.8206465729942
 20
-152.8141627588751
 30
0.0
 10
375.6328450365107
 20
-159.121585374411
 30
0.0
 10
373.6538042478748
 20
-165.497363075145
 30
0.0
 10
371.8909273081215
 20
-171.9350644739476
 30
0.0
 10
370.3523173187439
 20
-178.4271178984033
 30
0.0
 10
369.0465090026635
 20
-184.9643916159326
 30
0.0
 10
367.9828496758237
 20
-191.5357468990347
 30
0.0
 10
367.1691281585437
 20
-198.1273748405467
 30
0.0
 10
366.6188395117824
 20
-204.7214922973479
 30
0.0
 10
366.3661456902429
 20
-210.3077362930304
 30
0.0
 10
366.3427510097395
 20
-213.6879483827422
 30
0.0
 10
366.334498161894
 20
-214.8803722783278
 30
0.0
  0
SPLINE
  5
D6
330
1F
100
AcDbEntity
  8
0
  6
Continuous
 62
     7
370
    25
100
AcDbSpline
210
0.0
220
0.0
230
1.0
 70
     8
 71
     3
 72
    19
 73
    15
 74
     0
 42
0.000000001
 43
0.00000001
 40
0.0
 40
0.0
 40
0.0
 40
0.0
 40
0.0884463494808244
 40
0.1745144839042124
 40
0.2589547441895101
 40
0.3424266703206647
 40
0.4254847343571359
 40
0.508569373578154
 40
0.5919811612507782
 40
0.6758662693883651
 40
0.7603529414541156
 40
0.8454667466341089
 40
0.9311478150217832
 40
1.0
 40
1.0
 40
1.0
 40
1.0
 10
526.3416710299367
 20
-214.8299254568868
 30
0.0
 10
526.3509667169417
 20
-214.7219782786326
 30
0.0
 10
526.3693081412031
 20
-214.508986490814
 30
0.0
 10
526.4542495090059
 20
-213.8784305324161
 30
0.0
 10
526.6029250644093
 20
-213.0407399156898
 30
0.0
 10
526.8324493532147
 20
-211.9896047780713
 30
0.0
 10
527.1544853292504
 20
-210.7480690742083
 30
0.0
 10
527.5789911141837
 20
-209.3345940674772
 30
0.0
 10
528.1124970670062
 20
-207.7728408966316
 30
0.0
 10
528.7584082297325
 20
-206.0892084755757
 30
0.0
 10
529.5154100213203
 20
-204.3124233354054
 30
0.0
 10
530.3816164059551
 20
-202.4748486053868
 30
0.0
 10
531.2741617718316
 20
-200.7300704995779
 30
0.0
 10
531.9085312826714
 20
-199.6210498960562
 30
0.0
 10
532.191174182847
 20
-199.1269265272979
 30
0.0
  0
LWPOLYLINE
  5
D7
330
1F
100
AcDbEntity
  8
0
  6
Continuous
 62
     7
370
    25
100
AcDbPolyline
 90
      103
 70
   128
 43
0.0
 10
389.7659542978
 20
-284.9962523501
 10
393.3556550569
 20
-283.0478366914
 10
397.1463258191
 20
-281.230690192
 10
401.1235836431
 20
-279.5517047577
 10
405.272342262
 20
-278.0172476597
 10
409.5768591694
 20
-276.633140436
 10
414.020816291
 20
-275.4046366509
 10
418.5873443505
 20
-274.3363895812
 10
423.2591354813
 20
-273.4324601988
 10
428.0184524456
 20
-272.6962692705
 10
432.8472484896
 20
-272.1306133241
 10
437.7272081735
 20
-271.7376410786
 10
442.6398184942
 20
-271.5188367162
 10
447.566442642
 20
-271.4750350896
 10
452.4883937579
 20
-271.6064004319
 10
457.3870060565
 20
-271.9124339607
 10
462.243684875
 20
-272.3919784394
 10
467.0400199431
 20
-273.0432075332
 10
471.7578117249
 20
-273.8636562219
 10
476.3791609806
 20
-274.8502116764
 10
480.8865425237
 20
-275.9991315068
 10
485.2628526363
 20
-277.3060589687
 10
489.4914986309
 20
-278.7660320879
 10
493.5564337536
 20
-280.3735159744
 10
497.442238514
 20
-282.1224132773
 10
501.1341786372
 20
-284.006085474
 10
504.6182419424
 20
-286.0173924082
 10
507.8812114415
 20
-288.1487040751
 10
510.9107186806
 20
-290.3919314148
 10
513.6952641557
 20
-292.7385685116
 10
516.2242858006
 20
-295.179713883
 10
518.4881958658
 20
-297.7061039353
 10
520.4783990285
 20
-300.3081599138
 10
522.1873483684
 20
-302.9760080524
 10
523.6085611737
 20
-305.6995312762
 10
524.7366452817
 20
-308.468396574
 10
525.5673306898
 20
-311.2720975775
 10
526.0974537504
 20
-314.1000062638
 10
526.3250098539
 20
-316.9413881625
 10
526.2491349899
 20
-319.7854677451
 10
525.8701136496
 20
-322.6214573174
 10
525.1893919967
 20
-325.4385980784
 10
524.2095409891
 20
-328.2262026988
 10
522.9342827203
 20
-330.9736979002
 10
521.3684614437
 20
-333.6706655135
 10
519.5180027427
 20
-336.3068660491
 10
517.3899411898
 20
-338.8723078884
 10
514.9923373699
 20
-341.3572526056
 10
512.3342917093
 20
-343.7522799767
 10
509.4258885003
 20
-346.0483020463
 10
506.2781573754
 20
-348.2366096978
 10
502.9030367589
 20
-350.3088998361
 10
499.3133359998
 20
-352.2573154948
 10
495.5226652376
 20
-354.0744619942
 10
491.5454074136
 20
-355.7534474286
 10
487.3966487947
 20
-357.2879045265
 10
483.0921318873
 20
-358.6720117503
 10
478.6481747657
 20
-359.9005155353
 10
474.0816467062
 20
-360.9687626051
 10
469.4098555754
 20
-361.8726919874
 10
464.6505386111
 20
-362.6088829157
 10
459.8217425671
 20
-363.1745388621
 10
454.9417828832
 20
-363.5675111076
 10
450.0291725625
 20
-363.78631547
 10
445.1025484147
 20
-363.8301170966
 10
440.1805972988
 20
-363.6987517543
 10
435.2819850002
 20
-363.3927182255
 10
430.4253061817
 20
-362.9131737468
 10
425.6289711136
 20
-362.261944653
 10
420.9111793318
 20
-361.4414959643
 10
416.2898300761
 20
-360.4549405098
 10
411.782448533
 20
-359.3060206794
 10
407.4061384204
 20
-357.9990932175
 10
403.1774924258
 20
-356.5391200983
 10
399.1125573031
 20
-354.9316362118
 10
395.2267525427
 20
-353.182738909
 10
391.5348124195
 20
-351.2990667123
 10
388.0507491143
 20
-349.287759778
 10
384.7877796152
 20
-347.1564481111
 10
381.7582723761
 20
-344.9132207714
 10
378.973726901
 20
-342.5665836747
 10
376.4447052561
 20
-340.1254383032
 10
374.1807951909
 20
-337.5990482509
 10
372.1905920282
 20
-334.9969922724
 10
370.4816426882
 20
-332.3291441339
 10
369.060429883
 20
-329.6056209101
 10
367.932345775
 20
-326.8367556122
 10
367.1016603668
 20
-324.0330546087
 10
366.5715373063
 20
-321.2051459225
 10
366.3439812028
 20
-318.3637640237
 10
366.4198560668
 20
-315.5196844412
 10
366.7988774071
 20
-312.6836948688
 10
367.47959906
 20
-309.8665541078
 10
368.4594500676
 20
-307.0789494874
 10
369.7347083364
 20
-304.331454286
 10
371.300529613
 20
-301.6344866728
 10
373.150988314
 20
-298.9982861371
 10
375.2790498668
 20
-296.4328442978
 10
377.6766536868
 20
-293.9478995807
 10
380.3346993474
 20
-291.5528722096
 10
383.2431025564
 20
-289.25685014
 10
386.3908336813
 20
-287.0685424884
 10
389.7659542978
 20
-284.9962523501
  0
LWPOLYLINE
  5
D8
330
1F
100
AcDbEntity
  8
0
  6
Continuous
 62
     7
370
    25
100
AcDbPolyline
 90
       93
 70
   128
 43
0.0
 10
400.0897142051
 20
-290.9560320871
 10
397.0416649868
 20
-292.8401040322
 10
394.2234418748
 20
-294.8398635034
 10
391.64818382
 20
-296.9459858894
 10
389.3279023449
 20
-299.1486538793
 10
387.2734081161
 20
-301.4375937685
 10
385.4942855905
 20
-303.8021357153
 10
383.9988271603
 20
-306.2312548
 10
382.7940068121
 20
-308.7136257686
 10
381.8854419304
 20
-311.2376754965
 10
381.2773709077
 20
-313.7916324106
 10
380.9726228512
 20
-316.3635926388
 10
380.9726228512
 20
-318.9415595474
 10
381.2773709077
 20
-321.5135197756
 10
381.8854419304
 20
-324.0674766897
 10
382.7940068121
 20
-326.5915264176
 10
383.9988271603
 20
-329.0738973862
 10
385.4942855905
 20
-331.5030164709
 10
387.2734081161
 20
-333.8675584178
 10
389.3279023449
 20
-336.1564983069
 10
391.64818382
 20
-338.3591662968
 10
394.2234418748
 20
-340.4652886829
 10
397.0416649868
 20
-342.465048154
 10
400.0897142051
 20
-344.3491200991
 10
403.3533761637
 20
-346.1087214587
 10
406.8174365088
 20
-347.7356470311
 10
410.46574279
 20
-349.2223118616
 10
414.2812890831
 20
-350.5617818458
 10
418.2462788815
 20
-351.7478161186
 10
422.3422294749
 20
-352.774881691
 10
426.5500430726
 20
-353.6381914666
 10
430.8501016337
 20
-354.3337194489
 10
435.2223577463
 20
-354.8582227908
 10
439.6464202382
 20
-355.2092547202
 10
444.1016687639
 20
-355.3851820286
 10
448.5673222928
 20
-355.3851820286
 10
453.0225708185
 20
-355.2092547202
 10
457.4466333104
 20
-354.8582227908
 10
461.818889423
 20
-354.3337194489
 10
466.1189479841
 20
-353.6381914666
 10
470.3267615818
 20
-352.774881691
 10
474.4227121752
 20
-351.7478161186
 10
478.3877019736
 20
-350.5617818458
 10
482.2032482667
 20
-349.2223118616
 10
485.8515545479
 20
-347.7356470311
 10
489.315614893
 20
-346.1087214587
 10
492.5792768516
 20
-344.3491200991
 10
495.6273260699
 20
-342.465048154
 10
498.4455491819
 20
-340.4652886829
 10
501.0208072367
 20
-338.3591662968
 10
503.3410887118
 20
-336.1564983069
 10
505.3955829406
 20
-333.8675584178
 10
507.1747054662
 20
-331.5030164709
 10
508.6701638964
 20
-329.0738973862
 10
509.8749842446
 20
-326.5915264176
 10
510.7835491263
 20
-324.0674766897
 10
511.391620149
 20
-321.5135197756
 10
511.6963682055
 20
-318.9415595474
 10
511.6963682055
 20
-316.3635926388
 10
511.391620149
 20
-313.7916324106
 10
510.7835491263
 20
-311.2376754965
 10
509.8749842446
 20
-308.7136257686
 10
508.6701638964
 20
-306.2312548
 10
507.1747054662
 20
-303.8021357153
 10
505.3955829406
 20
-301.4375937685
 10
503.3410887118
 20
-299.1486538793
 10
501.0208072367
 20
-296.9459858894
 10
498.4455491819
 20
-294.8398635034
 10
495.6273260699
 20
-292.8401040322
 10
492.5792768516
 20
-290.9560320871
 10
489.315614893
 20
-289.1964307275
 10
485.8515545479
 20
-287.5695051551
 10
482.2032482667
 20
-286.0828403246
 10
478.3877019736
 20
-284.7433703405
 10
474.4227121752
 20
-283.5573360676
 10
470.3267615818
 20
-282.5302704953
 10
466.1189479841
 20
-281.6669607196
 10
461.818889423
 20
-280.9714327373
 10
457.4466333104
 20
-280.4469293955
 10
453.0225708185
 20
-280.095897466
 10
448.5673222928
 20
-279.9199701577
 10
444.1016687639
 20
-279.9199701577
 10
439.6464202382
 20
-280.095897466
 10
435.2223577463
 20
-280.4469293955
 10
430.8501016337
 20
-280.9714327373
 10
426.5500430726
 20
-281.6669607196
 10
422.3422294749
 20
-282.5302704953
 10
418.2462788815
 20
-283.5573360676
 10
414.2812890831
 20
-284.7433703405
 10
410.46574279
 20
-286.0828403246
 10
406.8174365088
 20
-287.5695051551
 10
403.3533761637
 20
-289.1964307275
 10
400.0897142051
 20
-290.9560320871
  0
LWPOLYLINE
  5
D9
330
1F
100
AcDbEntity
  8
0
  6
Continuous
 62
     7
370
    25
100
AcDbPolyline
 90
      103
 70
   128
 43
0.0
 10
470.3761273952
 20
-15.5453467497
 10
472.9458523591
 20
-17.0292734269
 10
475.7204162751
 20
-18.6314554449
 10
478.6892929677
 20
-20.3458265933
 10
481.8412186918
 20
-22.1658401313
 10
485.1642342791
 20
-24.0846208831
 10
488.6457378219
 20
-26.0948861509
 10
492.2725268198
 20
-28.1890004749
 10
496.0308350585
 20
-30.3590516714
 10
499.9064116348
 20
-32.596774801
 10
503.884552567
 20
-34.8936799149
 10
507.9501640149
 20
-37.2410885636
 10
512.087836037
 20
-39.6300668792
 10
516.2818610298
 20
-42.0515578876
 10
520.5163364605
 20
-44.4963799946
 10
524.7751964772
 20
-46.9552573988
 10
529.0422830318
 20
-49.4188611582
 10
533.3014143689
 20
-51.8778487316
 10
537.5364350744
 20
-54.3228807063
 10
541.7312740281
 20
-56.7447029265
 10
545.8700181608
 20
-59.134128239
 10
549.936980942
 20
-61.4820638698
 10
553.9167234544
 20
-63.7796330897
 10
557.7941419797
 20
-66.0181162788
 10
561.554549329
 20
-68.1890100502
 10
565.1836695745
 20
-70.2840728687
 10
568.6677328798
 20
-72.295379803
 10
571.9935222565
 20
-74.2153008481
 10
575.1484269067
 20
-76.0365317192
 10
578.1204889792
 20
-77.7521695134
 10
580.8984141063
 20
-79.3557187841
 10
583.4716715029
 20
-80.8411006676
 10
585.830512076
 20
-82.2026511639
 10
587.9659717179
 20
-83.4352325368
 10
589.8699555994
 20
-84.5341724746
 10
591.5352434385
 20
-85.4952792928
 10
592.9555211105
 20
-86.3149210156
 10
594.125396453
 20
-86.9899858265
 10
595.0404282417
 20
-87.5179109606
 10
595.6971525327
 20
-87.896697908
 10
596.0930694909
 20
-88.1249048025
 10
596.2266960741
 20
-88.2016646692
 10
596.0975001784
 20
-88.1267082293
 10
595.7059822975
 20
-87.9002893728
 10
595.0536439129
 20
-87.5232764072
 10
594.1429242736
 20
-86.9971155491
 10
592.9773162995
 20
-86.3237883356
 10
591.5612137997
 20
-85.5058450772
 10
589.900001034
 20
-84.5464018123
 10
587.9999789563
 20
-83.4490672991
 10
585.8683546776
 20
-82.2180464334
 10
583.5132098563
 20
-80.8579942356
 10
580.9434848924
 20
-79.3740675584
 10
578.1689157081
 20
-77.7718885818
 10
575.2000442838
 20
-76.057514392
 10
572.0481185597
 20
-74.237500854
 10
568.7251029724
 20
-72.3187201022
 10
565.2435941613
 20
-70.3084578758
 10
561.6168157001
 20
-68.2143374691
 10
557.858502193
 20
-66.0442893139
 10
553.9829256167
 20
-63.8065783517
 10
550.0047846845
 20
-61.5096610704
 10
545.9391679683
 20
-59.162255463
 10
541.8015012145
 20
-56.7732741061
 10
537.6074762217
 20
-54.3517830977
 10
533.3730007911
 20
-51.9069609907
 10
529.1141407744
 20
-49.4480835865
 10
524.8470542197
 20
-46.9844798271
 10
520.5879228827
 20
-44.5254922537
 10
516.3529074455
 20
-42.0804572376
 10
512.1580658576
 20
-39.6586365381
 10
508.0193190908
 20
-37.2692249137
 10
503.9523589437
 20
-34.9212634274
 10
499.9726190655
 20
-32.6237170216
 10
496.0951926376
 20
-30.3852262271
 10
492.3347879225
 20
-28.2143431025
 10
488.7056703112
 20
-26.1192665959
 10
485.2216070059
 20
-24.1079596617
 10
481.895814995
 20
-22.1880523046
 10
478.7409077106
 20
-20.3668107868
 10
475.7688535407
 20
-18.651180598
 10
472.9909257794
 20
-17.0476085131
 10
470.4176657486
 20
-15.5622524851
 10
468.0588278097
 20
-14.2006883007
 10
465.923370802
 20
-12.9681054071
 10
464.0193816521
 20
-11.8691685107
 10
462.354093813
 20
-10.9080616925
 10
460.933816141
 20
-10.0884199697
 10
459.7639407985
 20
-9.4133551588
 10
458.8489090098
 20
-8.8854300247
 10
458.1921847188
 20
-8.5066430773
 10
457.7962624923
 20
-8.2784392242
 10
457.6626411774
 20
-8.2016763161
 10
457.7918370732
 20
-8.2766449234
 10
458.183354954
 20
-8.5030516125
 10
458.8356986069
 20
-8.8800615368
 10
459.7464077096
 20
-9.4062284776
 10
460.912020952
 20
-10.0795526497
 10
462.3281234518
 20
-10.8974959081
 10
463.9893362175
 20
-11.856939173
 10
465.8893530269
 20
-12.9542767275
 10
468.0209825739
 20
-14.1852945519
 10
470.3761273952
 20
-15.5453467497
  0
LWPOLYLINE
  5
DA
330
1F
100
AcDbEntity
  8
0
  6
Continuous
 62
     7
370
    25
100
AcDbPolyline
 90
       93
 70
   128
 43
0.0
 10
480.6998873025
 20
-21.5051264867
 10
478.576165558
 20
-20.2787092372
 10
476.6779610631
 20
-19.1824883612
 10
475.0141246561
 20
-18.2215631151
 10
473.5924166254
 20
-17.4004214269
 10
472.4194540263
 20
-16.7228912222
 10
471.5007133148
 20
-16.1921115196
 10
470.8404802987
 20
-15.8105887002
 10
470.4418316979
 20
-15.5801006802
 10
470.3066246079
 20
-15.5016847383
 10
470.4354912314
 20
-15.5757500578
 10
470.82783361
 20
-15.8019104159
 10
471.4818078191
 20
-16.1791575609
 10
472.3943845539
 20
-16.7056954271
 10
473.5612938119
 20
-17.3791028627
 10
474.9771065522
 20
-18.1962043446
 10
476.635213622
 20
-19.1531916447
 10
478.5278876601
 20
-20.2456230614
 10
480.6463002188
 20
-21.4684028787
 10
482.9805810331
 20
-22.8158459992
 10
485.519841728
 20
-24.2816125347
 10
488.2522390391
 20
-25.8589207292
 10
491.1650449474
 20
-27.5404110206
 10
494.2446674237
 20
-29.318237095
 10
497.4767561244
 20
-31.1840843253
 10
500.846233673
 20
-33.1292790775
 10
504.3374006979
 20
-35.1447580995
 10
507.9339677713
 20
-37.2211295381
 10
511.6191709841
 20
-39.3486605796
 10
515.3758315445
 20
-41.5174882814
 10
519.1864295342
 20
-43.7174857251
 10
523.0332013737
 20
-45.9383973759
 10
526.8982096278
 20
-48.1698489637
 10
530.7634338845
 20
-50.4014303717
 10
534.6108537318
 20
-52.622780042
 10
538.4225330516
 20
-54.8234998056
 10
542.1806911422
 20
-56.9933723675
 10
545.8678159879
 20
-59.1222320326
 10
549.4667143088
 20
-61.2001943605
 10
552.9606011225
 20
-63.2175253667
 10
556.3331893062
 20
-65.1648574953
 10
559.5687580853
 20
-67.0331135723
 10
562.652216254
 20
-68.8135493933
 10
565.5691891028
 20
-70.4978890873
 10
568.3060737362
 20
-72.0782718889
 10
570.8501154642
 20
-73.5473266636
 10
573.189449949
 20
-74.8982144986
 10
575.3131716936
 20
-76.1246317481
 10
577.2113761884
 20
-77.2208526241
 10
578.8752125955
 20
-78.1817778702
 10
580.2969206261
 20
-79.0029195584
 10
581.4698884936
 20
-79.6804710566
 10
582.3886186684
 20
-80.211232507
 10
583.0488516845
 20
-80.5927553265
 10
583.4475002853
 20
-80.8232555139
 10
583.5827073753
 20
-80.9016592883
 10
583.4538460202
 20
-80.8275909275
 10
583.0615089099
 20
-80.6014153607
 10
582.4075241641
 20
-80.2241864658
 10
581.4949526976
 20
-79.6976455582
 10
580.3280381712
 20
-79.0242533314
 10
578.912225431
 20
-78.2071518495
 10
577.2541183612
 20
-77.250152382
 10
575.3614495914
 20
-76.1577179239
 10
573.2430370327
 20
-74.9349381066
 10
570.9087614868
 20
-73.5875041121
 10
568.3694955235
 20
-72.1217284506
 10
565.6370982124
 20
-70.5444080887
 10
562.7242975724
 20
-68.8629269234
 10
559.6446645595
 20
-67.0851190991
 10
556.4125863955
 20
-65.2192536187
 10
553.0431035785
 20
-63.2740497404
 10
549.5519365536
 20
-61.2585828858
 10
545.9553747486
 20
-59.1822205733
 10
542.2701662674
 20
-57.0546804057
 10
538.513505707
 20
-54.8858527039
 10
534.702902449
 20
-52.6858583016
 10
530.8561306094
 20
-50.4649588182
 10
526.9911223554
 20
-48.2335072304
 10
523.125903367
 20
-46.0019106136
 10
519.2784782513
 20
-43.7805639847
 10
515.4668094683
 20
-41.5798259709
 10
511.7086461093
 20
-39.4099686178
 10
508.0215159952
 20
-37.2811119941
 10
504.4226176743
 20
-35.2031618336
 10
500.9287308606
 20
-33.1858186599
 10
497.556142677
 20
-31.2384865314
 10
494.3205844345
 20
-29.3702487065
 10
491.2371209975
 20
-27.589791592
 10
488.3201481488
 20
-25.905451898
 10
485.5832635154
 20
-24.3250690964
 10
483.0392217873
 20
-22.8560143217
 10
480.6998873025
 20
-21.5051264867
  0
LWPOLYLINE
  5
DB
330
1F
100
AcDbEntity
  8
0
  6
Continuous
 62
     1
370
    25
100
AcDbPolyline
 90
       14
 70
   128
 43
0.0
 10
502.9030367589
 20
-182.2240485353
 10
506.2781573754
 20
-184.2963386736
 10
509.4258885003
 20
-186.4846463252
 10
512.3342917093
 20
-188.7806683948
 10
514.9923373699
 20
-191.1756957659
 10
517.3899411898
 20
-193.660640483
 10
519.5180027427
 20
-196.2260823223
 10
521.3684614437
 20
-198.862282858
 10
522.9342827203
 20
-201.5592504712
 10
524.2095409891
 20
-204.3067456726
 10
525.1893919967
 20
-207.094350293
 10
525.8701136496
 20
-209.911491054
 10
526.2491349899
 20
-212.7474806264
 10
526.3344928948
 20
-214.8803722783
  0
LWPOLYLINE
  5
DC
330
1F
100
AcDbEntity
  8
0
  6
Continuous
 62
     1
370
    25
100
AcDbPolyline
 90
       40
 70
   128
 43
0.0
 10
366.3344981619
 20
-214.8803722783
 10
366.3439812028
 20
-214.1691843477
 10
366.5715373063
 20
-211.327802449
 10
367.1016603668
 20
-208.4998937627
 10
367.932345775
 20
-205.6961927593
 10
369.060429883
 20
-202.9273274614
 10
370.4816426882
 20
-200.2038042376
 10
372.1905920282
 20
-197.535956099
 10
374.1807951909
 20
-194.9339001205
 10
376.4447052561
 20
-192.4075100682
 10
378.973726901
 20
-189.9663646968
 10
381.7582723761
 20
-187.6197276
 10
384.7877796152
 20
-185.3765002603
 10
388.0507491143
 20
-183.2451885934
 10
391.5348124195
 20
-181.2338816592
 10
395.2267525427
 20
-179.3502094625
 10
399.1125573031
 20
-177.6013121596
 10
403.1774924258
 20
-175.9938282731
 10
407.4061384204
 20
-174.5338551539
 10
411.782448533
 20
-173.226927692
 10
416.2898300761
 20
-172.0780078617
 10
420.9111793318
 20
-171.0914524071
 10
425.6289711136
 20
-170.2710037184
 10
430.4253061817
 20
-169.6197746247
 10
435.2819850002
 20
-169.1402301459
 10
440.1805972988
 20
-168.8341966171
 10
445.1025484147
 20
-168.7028312748
 10
450.0291725625
 20
-168.7466329015
 10
454.9417828832
 20
-168.9654372638
 10
459.8217425671
 20
-169.3584095094
 10
464.6505386111
 20
-169.9240654557
 10
469.4098555754
 20
-170.660256384
 10
474.0816467062
 20
-171.5641857664
 10
478.6481747657
 20
-172.6324328362
 10
483.0921318873
 20
-173.8609366212
 10
487.3966487947
 20
-175.2450438449
 10
491.5454074136
 20
-176.7795009429
 10
495.5226652376
 20
-178.4584863773
 10
499.3133359998
 20
-180.2756328766
 10
502.9030367589
 20
-182.2240485353
  0
LWPOLYLINE
  5
DD
330
1F
100
AcDbEntity
  8
0
  6
Continuous
 62
     1
370
    25
100
AcDbPolyline
 90
       17
 70
   128
 43
0.0
 10
502.9030367589
 20
-182.2240485353
 10
506.3095831194
 20
-184.1905916527
 10
509.5514703038
 20
-186.0620445455
 10
512.6164016398
 20
-187.8313208252
 10
515.492757439
 20
-189.4917067748
 10
518.1696210088
 20
-191.0369067804
 10
520.63684352
 20
-192.461038193
 10
522.8850578354
 20
-193.7587305632
 10
524.9057384379
 20
-194.925038564
 10
526.6912264548
 20
-195.9555416053
 10
528.2347388777
 20
-196.8463430659
 10
529.5304251971
 20
-197.5940482374
 10
530.5733753053
 20
-198.1958297154
 10
531.3596273984
 20
-198.6494015402
 10
531.8861969528
 20
-198.9530420032
 10
532.1510951641
 20
-199.105604289
 10
532.1850707923
 20
-199.1250284357
  0
LWPOLYLINE
  5
DE
330
1F
100
AcDbEntity
  8
0
  6
Continuous
 62
     1
370
    25
100
AcDbPolyline
 90
       37
 70
   128
 43
0.0
 10
393.6210047004
 20
-119.1250281034
 10
393.6527695947
 20
-119.1435510958
 10
393.9132430454
 20
-119.294317627
 10
394.4354192848
 20
-119.5961733481
 10
395.2173186457
 20
-120.0479663671
 10
396.2559723272
 20
-120.6480026264
 10
397.5474446203
 20
-121.3939965719
 10
399.0868286277
 20
-122.2831162173
 10
400.868290962
 20
-123.3119816724
 10
402.8850736395
 20
-124.4767005589
 10
405.1295210804
 20
-125.7728524246
 10
407.593125548
 20
-127.1955294303
 10
410.2665422959
 20
-128.7393215265
 10
413.1396244703
 20
-130.3983693093
 10
416.2014744766
 20
-132.1664012827
 10
419.4404834922
 20
-134.0366806327
 10
422.8443551742
 20
-136.0021375488
 10
426.4001873185
 20
-138.0553099087
 10
430.0944876652
 20
-140.1884071613
 10
433.9132423872
 20
-142.3933255353
 10
437.8419661395
 20
-144.6617286507
 10
441.8657494744
 20
-146.984983641
 10
445.9693405012
 20
-149.3542965126
 10
450.1371659593
 20
-151.7606726061
 10
454.3534128779
 20
-154.1949819904
 10
458.6020944307
 20
-156.6479944472
 10
462.867089448
 20
-159.1104022823
 10
467.1322240768
 20
-161.5728613884
 10
471.381311293
 20
-164.0260444768
 10
475.5982430979
 20
-166.4606334716
 10
479.767015543
 20
-168.8673887069
 10
483.8718117062
 20
-171.2372029186
 10
487.8970688638
 20
-173.5610548539
 10
491.8275173441
 20
-175.8301533734
 10
495.6482470411
 20
-178.0358845975
 10
499.3447617437
 20
-180.1698858557
 10
502.9030367589
 20
-182.2240485353
  0
ENDSEC
  0
SECTION
  2
OBJECTS
  0
DICTIONARY
  5
C
330
0
100
AcDbDictionary
281
     1
  3
ACAD_GROUP
350
D
  3
ACAD_LAYOUT
350
1A
  3
ACAD_MLINESTYLE
350
17
  3
ACAD_PLOTSETTINGS
350
19
  3
ACAD_PLOTSTYLENAME
350
E
  3
ACAD_SCALELIST
350
47
  0
DICTIONARY
  5
D
102
{ACAD_REACTORS
330
C
102
}
330
C
100
AcDbDictionary
281
     1
  0
DICTIONARY
  5
1A
102
{ACAD_REACTORS
330
C
102
}
330
C
100
AcDbDictionary
281
     1
  3
Layout1
350
1E
  3
Layout2
350
26
  3
Model
350
22
  0
DICTIONARY
  5
17
102
{ACAD_REACTORS
330
C
102
}
330
C
100
AcDbDictionary
281
     1
  3
Standard
350
18
  0
DICTIONARY
  5
19
102
{ACAD_REACTORS
330
C
102
}
330
C
100
AcDbDictionary
281
     1
  0
ACDBDICTIONARYWDFLT
  5
E
102
{ACAD_REACTORS
330
C
102
}
330
C
100
AcDbDictionary
281
     1
  3
Normal
350
F
100
AcDbDictionaryWithDefault
340
F
  0
DICTIONARY
  5
47
102
{ACAD_REACTORS
330
C
102
}
330
C
100
AcDbDictionary
281
     1
  3
A0
350
48
  3
A1
350
49
  3
A2
350
4A
  3
A3
350
4B
  3
A4
350
4C
  3
A5
350
4D
  3
A6
350
4E
  3
A7
350
4F
  3
A8
350
50
  3
A9
350
51
  3
B0
350
52
  3
B1
350
53
  3
B2
350
54
  3
B3
350
55
  3
B4
350
56
  3
B5
350
57
  3
B6
350
58
  3
B7
350
59
  3
B8
350
5A
  3
B9
350
5B
  3
C0
350
5C
  3
C1
350
5D
  3
C2
350
5E
  3
C3
350
5F
  3
C4
350
60
  3
C5
350
61
  3
C6
350
62
  3
C7
350
63
  3
C8
350
64
  3
C9
350
65
  3
D0
350
66
  3
D1
350
67
  3
D2
350
68
  0
LAYOUT
  5
1E
102
{ACAD_REACTORS
330
1A
102
}
330
1A
100
AcDbPlotSettings
  1

  2
none_device
  4

  6

 40
0.0
 41
0.0
 42
0.0
 43
0.0
 44
0.0
 45
0.0
 46
0.0
 47
0.0
 48
0.0
 49
0.0
140
0.0
141
0.0
142
1.0
143
1.0
 70
   688
 72
     1
 73
     0
 74
     5
  7

 75
    16
147
1.0
148
0.0
149
0.0
100
AcDbLayout
  1
Layout1
 70
     1
 71
     1
 10
0.0
 20
0.0
 11
420.0
 21
297.0
 12
0.0
 22
0.0
 32
0.0
 14
1.0000000000E+20
 24
1.0000000000E+20
 34
1.0000000000E+20
 15
-1.0000000000E+20
 25
-1.0000000000E+20
 35
-1.0000000000E+20
146
0.0
 13
0.0
 23
0.0
 33
0.0
 16
1.0
 26
0.0
 36
0.0
 17
0.0
 27
1.0
 37
0.0
 76
     0
330
1B
  0
LAYOUT
  5
26
102
{ACAD_REACTORS
330
1A
102
}
330
1A
100
AcDbPlotSettings
  1

  2
none_device
  4

  6

 40
0.0
 41
0.0
 42
0.0
 43
0.0
 44
0.0
 45
0.0
 46
0.0
 47
0.0
 48
0.0
 49
0.0
140
0.0
141
0.0
142
1.0
143
1.0
 70
   688
 72
     1
 73
     0
 74
     5
  7

 75
    16
147
1.0
148
0.0
149
0.0
100
AcDbLayout
  1
Layout2
 70
     1
 71
     2
 10
0.0
 20
0.0
 11
0.0
 21
0.0
 12
0.0
 22
0.0
 32
0.0
 14
0.0
 24
0.0
 34
0.0
 15
0.0
 25
0.0
 35
0.0
146
0.0
 13
0.0
 23
0.0
 33
0.0
 16
1.0
 26
0.0
 36
0.0
 17
0.0
 27
1.0
 37
0.0
 76
     0
330
23
  0
LAYOUT
  5
22
102
{ACAD_REACTORS
330
1A
102
}
330
1A
100
AcDbPlotSettings
  1

  2
none_device
  4
Letter_(8.50_x_11.00_Inches)
  6

 40
6.35
 41
6.35
 42
6.35000508
 43
6.35000508
 44
215.9
 45
279.4
 46
0.0
 47
0.0
 48
0.0
 49
0.0
140
0.0
141
0.0
142
1.0
143
1.0
 70
  1712
 72
     1
 73
     0
 74
     0
  7

 75
     0
147
1.0
148
0.0
149
0.0
100
AcDbLayout
  1
Model
 70
     1
 71
     0
 10
0.0
 20
0.0
 11
279.4
 21
215.9
 12
0.0
 22
0.0
 32
0.0
 14
0.0
 24
0.0
 34
0.0
 15
279.4
 25
215.9
 35
0.0
146
0.0
 13
0.0
 23
0.0
 33
0.0
 16
1.0
 26
0.0
 36
0.0
 17
0.0
 27
1.0
 37
0.0
 76
     0
330
1F
331
29
  0
MLINESTYLE
  5
18
102
{ACAD_REACTORS
330
17
102
}
330
17
100
AcDbMlineStyle
  2
Standard
 70
     0
  3

 62
   256
 51
90.0
 52
90.0
 71
     2
 49
0.5
 62
   256
  6
BYLAYER
 49
-0.5
 62
   256
  6
BYLAYER
  0
ACDBPLACEHOLDER
  5
F
102
{ACAD_REACTORS
330
E
102
}
330
E
  0
SCALE
  5
48
102
{ACAD_REACTORS
330
47
102
}
330
47
100
AcDbScale
 70
     0
300
1:1
140
1.0
141
1.0
290
     1
  0
SCALE
  5
49
102
{ACAD_REACTORS
330
47
102
}
330
47
100
AcDbScale
 70
     0
300
1:2
140
1.0
141
2.0
290
     0
  0
SCALE
  5
4A
102
{ACAD_REACTORS
330
47
102
}
330
47
100
AcDbScale
 70
     0
300
1:4
140
1.0
141
4.0
290
     0
  0
SCALE
  5
4B
102
{ACAD_REACTORS
330
47
102
}
330
47
100
AcDbScale
 70
     0
300
1:5
140
1.0
141
5.0
290
     0
  0
SCALE
  5
4C
102
{ACAD_REACTORS
330
47
102
}
330
47
100
AcDbScale
 70
     0
300
1:8
140
1.0
141
8.0
290
     0
  0
SCALE
  5
4D
102
{ACAD_REACTORS
330
47
102
}
330
47
100
AcDbScale
 70
     0
300
1:10
140
1.0
141
10.0
290
     0
  0
SCALE
  5
4E
102
{ACAD_REACTORS
330
47
102
}
330
47
100
AcDbScale
 70
     0
300
1:16
140
1.0
141
16.0
290
     0
  0
SCALE
  5
4F
102
{ACAD_REACTORS
330
47
102
}
330
47
100
AcDbScale
 70
     0
300
1:20
140
1.0
141
20.0
290
     0
  0
SCALE
  5
50
102
{ACAD_REACTORS
330
47
102
}
330
47
100
AcDbScale
 70
     0
300
1:30
140
1.0
141
30.0
290
     0
  0
SCALE
  5
51
102
{ACAD_REACTORS
330
47
102
}
330
47
100
AcDbScale
 70
     0
300
1:40
140
1.0
141
40.0
290
     0
  0
SCALE
  5
52
102
{ACAD_REACTORS
330
47
102
}
330
47
100
AcDbScale
 70
     0
300
1:50
140
1.0
141
50.0
290
     0
  0
SCALE
  5
53
102
{ACAD_REACTORS
330
47
102
}
330
47
100
AcDbScale
 70
     0
300
1:100
140
1.0
141
100.0
290
     0
  0
SCALE
  5
54
102
{ACAD_REACTORS
330
47
102
}
330
47
100
AcDbScale
 70
     0
300
2:1
140
2.0
141
1.0
290
     0
  0
SCALE
  5
55
102
{ACAD_REACTORS
330
47
102
}
330
47
100
AcDbScale
 70
     0
300
4:1
140
4.0
141
1.0
290
     0
  0
SCALE
  5
56
102
{ACAD_REACTORS
330
47
102
}
330
47
100
AcDbScale
 70
     0
300
8:1
140
8.0
141
1.0
290
     0
  0
SCALE
  5
57
102
{ACAD_REACTORS
330
47
102
}
330
47
100
AcDbScale
 70
     0
300
10:1
140
10.0
141
1.0
290
     0
  0
SCALE
  5
58
102
{ACAD_REACTORS
330
47
102
}
330
47
100
AcDbScale
 70
     0
300
100:1
140
100.0
141
1.0
290
     0
  0
SCALE
  5
59
102
{ACAD_REACTORS
330
47
102
}
330
47
100
AcDbScale
 70
     0
300
1/128" = 1'-0"
140
0.0078125
141
12.0
290
     0
  0
SCALE
  5
5A
102
{ACAD_REACTORS
330
47
102
}
330
47
100
AcDbScale
 70
     0
300
1/64" = 1'-0"
140
0.015625
141
12.0
290
     0
  0
SCALE
  5
5B
102
{ACAD_REACTORS
330
47
102
}
330
47
100
AcDbScale
 70
     0
300
1/32" = 1'-0"
140
0.03125
141
12.0
290
     0
  0
SCALE
  5
5C
102
{ACAD_REACTORS
330
47
102
}
330
47
100
AcDbScale
 70
     0
300
1/16" = 1'-0"
140
0.0625
141
12.0
290
     0
  0
SCALE
  5
5D
102
{ACAD_REACTORS
330
47
102
}
330
47
100
AcDbScale
 70
     0
300
3/32" = 1'-0"
140
0.09375
141
12.0
290
     0
  0
SCALE
  5
5E
102
{ACAD_REACTORS
330
47
102
}
330
47
100
AcDbScale
 70
     0
300
1/8" = 1'-0"
140
0.125
141
12.0
290
     0
  0
SCALE
  5
5F
102
{ACAD_REACTORS
330
47
102
}
330
47
100
AcDbScale
 70
     0
300
3/16" = 1'-0"
140
0.1875
141
12.0
290
     0
  0
SCALE
  5
60
102
{ACAD_REACTORS
330
47
102
}
330
47
100
AcDbScale
 70
     0
300
1/4" = 1'-0"
140
0.25
141
12.0
290
     0
  0
SCALE
  5
61
102
{ACAD_REACTORS
330
47
102
}
330
47
100
AcDbScale
 70
     0
300
3/8" = 1'-0"
140
0.375
141
12.0
290
     0
  0
SCALE
  5
62
102
{ACAD_REACTORS
330
47
102
}
330
47
100
AcDbScale
 70
     0
300
1/2" = 1'-0"
140
0.5
141
12.0
290
     0
  0
SCALE
  5
63
102
{ACAD_REACTORS
330
47
102
}
330
47
100
AcDbScale
 70
     0
300
3/4" = 1'-0"
140
0.75
141
12.0
290
     0
  0
SCALE
  5
64
102
{ACAD_REACTORS
330
47
102
}
330
47
100
AcDbScale
 70
     0
300
1" = 1'-0"
140
1.0
141
12.0
290
     0
  0
SCALE
  5
65
102
{ACAD_REACTORS
330
47
102
}
330
47
100
AcDbScale
 70
     0
300
1-1/2" = 1'-0"
140
1.5
141
12.0
290
     0
  0
SCALE
  5
66
102
{ACAD_REACTORS
330
47
102
}
330
47
100
AcDbScale
 70
     0
300
3" = 1'-0"
140
3.0
141
12.0
290
     0
  0
SCALE
  5
67
102
{ACAD_REACTORS
330
47
102
}
330
47
100
AcDbScale
 70
     0
300
6" = 1'-0"
140
6.0
141
12.0
290
     0
  0
SCALE
  5
68
102
{ACAD_REACTORS
330
47
102
}
330
47
100
AcDbScale
 70
     0
300
1'-0" = 1'-0"
140
12.0
141
12.0
290
     0
  0
ENDSEC
  0
EOF
